Log in

One click and you are in

Login with Facebook Login with Google

Why sign up and log in

Guitar Tabs Explorer
My Chemical Romance bass tabs for Desert song

Bass tabs

Tuning: Standard (E A D G)


Intro:

D||-9---9-9-9-9-9---9-9-9-9-|-9---9-9-9-9-9---5-5-5-5-|
G||-------------------------|-------------------------|
A||-------------------------|-------------------------|
E||-------------------------|-------------------------|
  1  +  2  +  3  +   1  +  2  +  3  +

D||-5---5-5-5-5-5---5-5-5-5-|-5---5-5-5-5-5---5-5-5-5-|
G||-------------------------|-------------------------|
A||-------------------------|-------------------------|
E||-------------------------|-------------------------|
  1  +  2  +  3  +   1  +  2  +  3  +

D||-9---9-9-9-9-9---9-9-9-9-|-9---9-9-9-9-9---5-5-5-5-|
G||-------------------------|-------------------------|
A||-------------------------|-------------------------|
E||-------------------------|-------------------------|
  1  +  2  +  3  +   1  +  2  +  3  +

D||-5---5-5-5-5-5---5-5-5-5-|-------------------------|
G||-------------------------|-------------------------|
A||-------------------------|-------------------------|
E||-------------------------|-------------------------|
  1  +  2  +  3  +   1  +  2  +  3  +


Verse 1:

D||-9---9-9-9-9-9---9-9-9-9-|-9---9-9-9-9-9---9-9-9-9-|
G||-------------------------|-------------------------|
A||-------------------------|-------------------------|
E||-------------------------|-------------------------|
  1  +  2  +  3  +   1  +  2  +  3  +

D||-5---5-5-5-5-5---5-5-5-5-|-5---5-5-5-5-5---5-5-5-5-|
G||-------------------------|-------------------------|
A||-------------------------|-------------------------|
E||-------------------------|-------------------------|
  1  +  2  +  3  +   1  +  2  +  3  +

D||-9---9-9-9-9-9---9-9-9-9-|-9---9-9-9-9-9---9-9-9-9-|
G||-------------------------|-------------------------|
A||-------------------------|-------------------------|
E||-------------------------|-------------------------|
  1  +  2  +  3  +   1  +  2  +  3  +

D||-5---5-5-5-5-5---5-5-5-5-|-5---5-5-5-5-5---5-5-5-5-|
G||-------------------------|-------------------------|
A||-------------------------|-------------------------|
E||-------------------------|-------------------------|
  1  +  2  +  3  +   1  +  2  +  3  +

Pre-Chorus:

D||-------------------------|-------------4---4-4-4-4-|
G||-5---5-5-5-5-4---4-4-4-4-|-2---2-2-2-2-------------|
A||-------------------------|-------------------------|
E||-------------------------|-------------------------|
  1  +  2  +  3  +   1  +  2  +  3  +

D||-5---5-5-5-5-5---5-5-5-5-|-5---5-5-5-5-5---5-5-5-5-|
G||-------------------------|-------------------------|
A||-------------------------|-------------------------|
E||-------------------------|-------------------------|
  1  +  2  +  3  +   1  +  2  +  3  +

D||-------------------------|-------------4---4-4-4-4-|
G||-5---5-5-5-5-4---4-4-4-4-|-2---2-2-2-2-------------|
A||-------------------------|-------------------------|
E||-------------------------|-------------------------|
  1  +  2  +  3  +   1  +  2  +  3  +

D||-5---5-5-5-5-5---5-5-5-5-|-5---5-5-5-5-5---5-5-5-5-|
G||-------------------------|-------------------------|
A||-------------------------|-------------------------|
E||-------------------------|-------------------------|
  1  +  2  +  3  +   1  +  2  +  3  +

D||-4---4-4-4-4-4---4-4-4-4-|-4---4-4-4-4-4---4-4-4-4-|
G||-------------------------|-------------------------|
A||-------------------------|-------------------------|
E||-------------------------|-------------------------|
  1  +  2  +  3  +   1  +  2  +  3  +

D||-5---5-5-5-5-5---5-5-5-5-|-5---5-5-5-5-5---5-5-5-5-|
G||-------------------------|-------------------------|
A||-------------------------|-------------------------|
E||-------------------------|-------------------------|
  1  +  2  +  3  +   1  +  2  +  3  +

D||-4---4-4-4-4-4---4-4-4-4-|-4---4-4-4-4-4---4-4-4-4-|
G||-------------------------|-------------------------|
A||-------------------------|-------------------------|
E||-------------------------|-------------------------|
  1  +  2  +  3  +   1  +  2  +  3  +

D||-5---5-5-5-5-5---5-5-5-5-|-5---5-5-5-5-5---5-5-5-5-|
G||-------------------------|-------------------------|
A||-------------------------|-------------------------|
E||-------------------------|-------------------------|
  1  +  2  +  3  +   1  +  2  +  3  +


Chorus:

D||-5---5-5-5-5-5---5-5-5-5-|-4---4-4-4-4-4---4-4-4-4-|
G||-------------------------|-------------------------|
A||-------------------------|-------------------------|
E||-------------------------|-------------------------|
  1  +  2  +  3  +   1  +  2  +  3  +

D||-------------------------|-------------------------|
G||-2---2-2-2-2-2---2-2-2-2-|-2---2-2-2-2-2---2-2-2-2-|
A||-------------------------|-------------------------|
E||-------------------------|-------------------------|
  1  +  2  +  3  +   1  +  2  +  3  +

D||-0---0-0-0-0-0---0-0-0-0-|-0---0-0-0-0-0---0-0-0-0-|
G||-------------------------|-------------------------|
A||-------------------------|-------------------------|
E||-------------------------|-------------------------|
  1  +  2  +  3  +   1  +  2  +  3  +

D||-------------------------|-------------------------|
G||-2---2-2-2-2-2---2-2-2-2-|-2---2-2-2-2-2---2-2-2-2-|
A||-------------------------|-------------------------|
E||-------------------------|-------------------------|
  1  +  2  +  3  +   1  +  2  +  3  +

D||-0---0-0-0-0-0---0-0-0-0-|-------------------------|
G||-------------------------|-4---4-4-4-4-4---4-4-4-4-|
A||-------------------------|-------------------------|
E||-------------------------|-------------------------|
  1  +  2  +  3  +   1  +  2  +  3  +

D||-------------------------|-------------------------|
G||-2---2-2-2-2-2---2-2-2-2-|-2---2-2-2-2-2---2-2-2-2-|
A||-------------------------|-------------------------|
E||-------------------------|-------------------------|
  1  +  2  +  3  +   1  +  2  +  3  +

D||-0---0-0-0-0-0---0-0-0-0-|-0---0-0-0-0-0---0-0-0-0-|
G||-------------------------|-------------------------|
A||-------------------------|-------------------------|
E||-------------------------|-------------------------|
  1  +  2  +  3  +   1  +  2  +  3  +

D||-------------------------|-9-9-9-9-9-9-9-9-9-9-9-9-|
G||-2---2-2-2-2-2---2-2-2-2-|-------------------------|
A||-------------------------|-------------------------|
E||-------------------------|-------------------------|
  1  +  2  +  3  +   1  +  2  +  3  +

D||-------------------------|-9-9-9-9-9-9-9-9-9-9-9-9-|
G||-2---2-2-2-2-2---2-2-2-2-|-------------------------|
A||-------------------------|-------------------------|
E||-------------------------|-------------------------|
  1  +  2  +  3  +   1  +  2  +  3  +


Bridge:

D||-5-5-5-5-5-5-5-5---------|-------------------------|
G||-----------------7-7-7-7-|-7-7-7-7-7-7-7-7-7-7-7-7-|
A||-------------------------|-------------------------|
E||-------------------------|-------------------------|
  1  +  2  +  3  +   1  +  2  +  3  +

D||-5-5-5-5-5-5-5-5-2-2-2-2-|-2-2-2-2-2-2-2-2-2-2-2-2-|
G||-------------------------|-------------------------|
A||-------------------------|-------------------------|
E||-------------------------|-------------------------|
  1  +  2  +  3  +   1  +  2  +  3  +

D||-5-5-5-5-5-5-5-5-2-2-2-2-|-2-2-2-2-2-2-2-2-2-2-2-2-|
G||-------------------------|-------------------------|
A||-------------------------|-------------------------|
E||-------------------------|-------------------------|
  1  +  2  +  3  +   1  +  2  +  3  +

D||-5-5-5-5-5-5-5-5-2-2-2-2-|-2-2-2-2-2-2-2-2-2-2-2-2-|
G||-------------------------|-------------------------|
A||-------------------------|-------------------------|
E||-------------------------|-------------------------|
  1  +  2  +  3  +   1  +  2  +  3  +


Solo:

D||-4-4-4-4-4-4-4-4-4-4-4-4-|-4-4-4-4-4-4-4-4-4-4-4-4-|
G||-------------------------|-------------------------|
A||-------------------------|-------------------------|
E||-------------------------|-------------------------|
  1  +  2  +  3  +   1  +  2  +  3  +

D||-4-4-4-4-4-4-4-4-4-4-4-4-|-4-4-4-4-4-4-4-4-4-4-4-4-|
G||-------------------------|-------------------------|
A||-------------------------|-------------------------|
E||-------------------------|-------------------------|
  1  +  2  +  3  +   1  +  2  +  3  +

D||-2-2-2-2-2-2-2-2-2-2-2-2-|-2-2-2-2-2-2-2-2-2-2-2-2-|
G||-------------------------|-------------------------|
A||-------------------------|-------------------------|
E||-------------------------|-------------------------|
  1  +  2  +  3  +   1  +  2  +  3  +

D||-4-4-4-4-4-4-4-4-4-4-4-4-|-4-4-4-4-4-4-4-4-4-4-4-4-|
G||-------------------------|-------------------------|
A||-------------------------|-------------------------|
E||-------------------------|-------------------------|
  1  +  2  +  3  +   1  +  2  +  3  +


Chorus:

D||-0---0-0-0-0-0---0-0-0-0-|-------------------------|
G||-------------------------|-4---4-4-4-4-4---4-4-4-4-|
A||-------------------------|-------------------------|
E||-------------------------|-------------------------|
  1  +  2  +  3  +   1  +  2  +  3  +

D||-------------------------|-------------------------|
G||-2---2-2-2-2-2---2-2-2-2-|-2---2-2-2-2-2---2-2-2-2-|
A||-------------------------|-------------------------|
E||-------------------------|-------------------------|
  1  +  2  +  3  +   1  +  2  +  3  +

D||-0---0-0-0-0-0---0-0-0-0-|-0---0-0-0-0-0---0-0-0-0-|
G||-------------------------|-------------------------|
A||-------------------------|-------------------------|
E||-------------------------|-------------------------|
  1  +  2  +  3  +   1  +  2  +  3  +

D||-------------------------|-9-9-9-9-9-9-9-9-9-9-9-9-|
G||-2---2-2-2-2-2---2-2-2-2-|-------------------------|
A||-------------------------|-------------------------|
E||-------------------------|-------------------------|
  1  +  2  +  3  +   1  +  2  +  3  +

D||-------------------------|-------------------------|
G||-5---5-5-5-5-5---5-5-5-5-|-------------------------|
A||-------------------------|-9---9-9-9-9-9---9-9-9-9-|
E||-------------------------|-------------------------|
  1  +  2  +  3  +   1  +  2  +  3  +

D||-------------------------|-------------------------|
G||-------------------------|-------------------------|
A||-7---7-7-7-7-7---7-7-7-7-|-7---7-7-7-7-7---7-7-7-7-|
E||-------------------------|-------------------------|
  1  +  2  +  3  +   1  +  2  +  3  +

D||-0---0-0-0-0-0---0-0-0-0-|-0---0-0-0-0-0---0-0-0-0-|
G||-------------------------|-------------------------|
A||-------------------------|-------------------------|
E||-------------------------|-------------------------|
  1  +  2  +  3  +   1  +  2  +  3  +

D||-4---4-4-4-4-4---4-4-4-4-|-4---4-4-4-4-4---4-4-4-4-|
G||-------------------------|-------------------------|
A||-------------------------|-------------------------|
E||-------------------------|-------------------------|
  1  +  2  +  3  +   1  +  2  +  3  +

D||-4---4-4-4-4-4---4-4-4-4-|-4---4-4-4-4-4---4-4-4-4-|
G||-------------------------|-------------------------|
A||-------------------------|-------------------------|
E||-------------------------|-------------------------|
  1  +  2  +  3  +   1  +  2  +  3  +


Outro:

D||-4-----------------------|\0-----------------------|
G||-------------------------|-------------------------|
A||-------------------------|-------------------------|
E||-------------------------|-------------------------|
  1  +  2  +  3  +   1  +  2  +  3  +

D||-5-----------------------|-4-----------2-----------|
G||-------------------------|-------------------------|
A||-------------------------|-------------------------|
E||-------------------------|-------------------------|
  1  +  2  +  3  +   1  +  2  +  3  +

D||-------------------------|\0-----------------------|
G||-------------------------|-------------------------|
A||-7-----------------------|-------------------------|
E||-------------------------|-------------------------|
  1  +  2  +  3  +   1  +  2  +  3  +

D||-5-----------------------|-------------------------|
G||-------------------------|-------------------------|
A||-------------------------|-------------------------|
E||-------------------------|-------------------------|
  1  +  2  +  3  +   1  +  2  +  3  +

***********************
| \ - slide down

***********************

Almost there ...

Sign in to get your own page with links to favourite songs and more. You are just one click away...

Login with Facebook Login with Google