Log in

One click and you are in

Login with Facebook Login with Google

Why sign up and log in

Guitar Tabs Explorer
My Chemical Romance bass tabs for Cancer

Bass tabs

The Bass starts at 00:37



00:37 - “...my sisters and my brothers still...”
G|------------------------------------------------------------14~------14\---|
D|---14\7-----7--8-----8--9-----9--10-----10/11-11~--------11----------------|
A|---------------------------------------------------------------------------|
E|---------------------------------------------------------------------------|
00:51 - “...cause the hardest part of this...”
G|--------------------4--4--4--4---------------------------------------------|
D|-----4---4--4--4-----------------------------------------------------------|
A|----------------------------------7~-----------7-7~------------7~----------|
E|---------------------------------------------------------------------------|


01:04 - “...now turn away...”
G|---------------------------------------------------------------------------|
D|---------------9--9--9--9--10--11--11--11--11-10-9-8-7--7--7--7/9----------|
A|--7--7--7--7/9----------------------------------------------------7--7--7--|
E|---------------------------------------------------------------------------|


01:19 - “...know that I will never marry...”
G|------------------------------------------------------9-9---14-14--16-16\--|
D|-------9--9--9--9-8-9-10-11-14-11-11--11--11-10-9-8-7----------------------|
A|--7/9----------------------------------------------------------------------|
E|---------------------------------------------------------------------------|


01:30 - “...but counting down the days to go...”
G|---------------------------------------------------------------------------|
D|-----7-----7-7-8-----8-8-9-----9-9-10-----10-10-11-------------------------|
A|---------------------------------------------------------------------------|
E|---------------------------------------------------------------------------|

01:37 - “...and I just hope you know...”
G|---------------------------------------------------------------------------|
D|-------11-11-11/19---19-19---19-19---19-19-19\-----------------------------|
A|---------------------------------------------------------------------------|
E|---------------------------------------------------------------------------|


01:43 - “...that if you say...” |16x7| |10x11|
G|---------------------------------------------------------------------------|
D|--------------------------------------11-11-11-11-11-11-11-11----11-11-----|
A|----7-7-7-7-7-7-7-7-7-7-7-7-7-7-7-7----------------------------------------|
E|---------------------------------------------------------------------------|


01:53 - “...to be true....cause the hardest part of this...”
G|---------------------------------------------------------------------------|
D|----9-9--------------------------------------------------------------------|
A|------------12-12-------11-11\-------9-9-9-9-9-9-9-9\-----2-2-2-2-2-2-2-2--|
E|---------------------------------------------------------------------------|


02:02 - “...is leaving you...”
G|---------------------------------------------------------------------------|
D|---------------------------------------------------------------------------|
A|--4-4-4-4---3-3-3-3---2-2-2-2---1-1-1-1-----------------2-2-2-2-2-2-2-2----|
E|----------------------------------------2-2-2-2-2-2-2-2-----------------0~-|

Almost there ...

Sign in to get your own page with links to favourite songs and more. You are just one click away...

Login with Facebook Login with Google