Log in

One click and you are in

Login with Facebook Login with Google

Why sign up and log in

Guitar Tabs Explorer
My Bloody Valentine chords for When you sleep

Guitar chords

intro and instrumental breaks (2 guitars - one does
the rhythm above while the other does the high bit
tabbed underneath)

  1 & 2   &  3 & 4 &    1 & 2   & 3  & 4 &
e---------------------|---------------------|
B---------------------|---------------------|
G-7---7------7-7---8--|-8---8-----8--8---12-|
D-8---8------8-8---10-|-10--10----10-10--13-|
A-8---8------8-8---10-|-10--10----10-10--13-|
E-6---6------6-6---8--|-8---8-----8--8---11-|
|                     |                     |
|                     |                     |
e-18bu19bd18---14-----|---------------------|
B---------------------|-15bu16bd15---13-----|
G---------------------|---------------------|
D---------------------|---------------------|
A---------------------|---------------------|
E---------------------|---------------------|


  1  & 2  & 3  &  4  &    1  & 2  & 3  &  4  &
e-----------------------|----------------------|
B-----------------------|----------------------|
G-12---12---12-12-12-12-|-12---12---12-12-12---|
D-13---13---13-13-13-13-|-13---13---13-13-13---|
A-13---13---13-13-13-13-|-13---13---13-13-13---|
E-11---11---11-11-11-11-|-11---11---11-11-11---|
|                       |                      |
|                       |                      |
e-----------------------|----------------------|
B-----------------------|----------------------|
G-12*****************11-|----------------------|
D-----------------------|----------------------|
A-----------------------|----------------------|
E-----------------------|----------------------|

where the *** are above, you need to bend down from
12th to 11th - the 12th fret note is reached by
fretting the 11th and bending up 1/2 note, then slowly
release the bend back, timing the bend so that the
11th fret note is reached at the point shown above


verse 1

chords

A chord diagramBb majorBb  6  8  8  7  6  6
A chord diagramG minorGm  3  5  5  3  3  3
A chord diagramC minorCm  8  10 10 8  8  8
A chord diagramEb MajorEb  11 13 13 12 11 11

A chord diagramBb majorBb
   when I look...
A chord diagramG minorGm              A chord diagramBb majorBb
   oh, but I... feel
         A chord diagramC minorCm
...while    and you...
A chord diagramBb majorBb
   and I'll sleep...
A chord diagramG minorGm                     A chord diagramBb majorBb
   and it won't be lo-ong
         A chord diagramC minorCm         A chord diagramBb majorBb
...while    then...down
            (A chord diagramBb majorBb A chord diagramC minorCm A chord diagramEb MajorEb) x 2
...walk away


verse 2

A chord diagramBb majorBb
   when you say...
A chord diagramG minorGm                 A chord diagramBb majorBb
   oh, but I...in you
            A chord diagramC minorCm
...forget it   no-oooh
A chord diagramBb majorBb
   when you sleep...
A chord diagramG minorGm            A chord diagramBb majorBb
  and it...lo-ong
         A chord diagramC minorCm              A chord diagramBb majorBb
...while    when you...smile
                    (instrumental
...long blonde hair         break)


verse 3 - I think it's the same as verse 1, it sounds
a bit like it should be different but I think only the
bass changes and the guitar plays the same chords as
before...

then it's a long instrumental break, then end by
striking a A chord diagramBb majorBb chord...all there is to it

Other versions of When You Sleep

When you sleepTabs

Almost there ...

Sign in to get your own page with links to favourite songs and more. You are just one click away...

Login with Facebook Login with Google