Log in

One click and you are in

Login with Facebook Login with Google

Why sign up and log in

Guitar Tabs Explorer
My Bloody Valentine chords for Only shallow

Guitar chords

Title: Only Shallow
Band: My Bloody Valentine
Album: Loveless (1991)

tabbed by scef (email: funnell_teen_spirit@yahoo.com)

I just have a correction to make, although of course
it might be wrong...the chords for the intro and

chorus in the original posting are correct but I think
the verses are actually played like this:

use downstrokes throughout, except for sliding between
the chords - for this use a single quick alternate
strum. listen to the song for the rhythm

e-----------------|-------------------|
B-----------------|-------------------|
G-4-4-4-4-4-4-4-4-|-4/7-7-7-7-7-7-7-7-|
D-5-5-5-5-5-5-5-5-|-5/8-8-8-8-8-8-8-8-|
A-5-5-5-5-5-5-5-5-|-5/8-8-8-8-8-8-8-8-|
E-3-3-3-3-3-3-3-3-|-3/6-6-6-6-6-6-6-6-|

e---------------------------|--------------------|
B---------------------------|--------------------|
G-7/9--9--9--9--9--9--9--9--|-9 \7-7-7-7-7-7-7-7-|
D-8/10-10-10-10-10-10-10-10-|-10\8-8-8-8-8-8-8-8-|
A-8/10-10-10-10-10-10-10-10-|-10\8-8-8-8-8-8-8-8-|
E-6/8--8--8--8--8--8--8--8--|-8 \6-6-6-6-6-6-6-6-|

(repeat lots)

Almost there ...

Sign in to get your own page with links to favourite songs and more. You are just one click away...

Login with Facebook Login with Google