Log in

One click and you are in

Login with Facebook Login with Google

Why sign up and log in

Guitar Tabs Explorer
My Bloody Valentine bass tabs for Only shallow

Only Shallow bass tab by My Bloody Valentine

My Bloody Valentine bass tabs for Only shallow

Bass tabs

Tuning: Standard (E A D G)


Intro: 00:01:

 1 e + i 2 e + i 3 e + i 4 e + i 1 e + i 2 e + i 3 e + i 4 e + i
G|--------------------------------|--------------------------------|
D|--------------------------------|--------------------------------|
A|------------1---1--/3---3-------|------------1-1-1--/3---3-------|
E|1---3---3-------------------1-1-|1---3---3-------------------1-1-|
 1 e + i 2 e + i 3 e + i 4 e + i 1 e + i 2 e + i 3 e + i 4 e + i
G|--------------------------------|--------------------------------|
D|--------------------------------|--------------------------------|
A|------------1-1-1--/3---3-------|------------1-1-1--/3---3---3---|
E|1---3---3-------------------1---|1---3---3-----------------------|

 1 e + i 2 e + i 3 e + i 4 e + i 1 e + i 2 e + i 3 e + i 4 e + i
G|--------------------------------|--------------------------------|
D|--------------------------------|--------------------------------|
A|------------1---1--/3---3-------|------------1-1-1--/3---3-------|
E|1---3---3-------------------1-1-|1---3---3-------------------1-1-|

 1 e + i 2 e + i 3 e + i 4 e + i 1 e + i 2 e + i 3 e + i 4 e + i
G|--------------------------------|--------------------------------|
D|--------------------------------|--------------------------------|
A|------------1-1-1--/3---3-------|------------1-1-1--/3---3-------|
E|1---3---3-------------------1---|1---3---3-------------------1---|


Verse 1: 00:24:

 1 e + i 2 e + i 3 e + i 4 e + i 1 e + i 2 e + i 3 e + i 4 e + i
G|7---7---7---7---7---7---7---7-7\|5---5---5---5---5---5---5---5-5/|
D|--------------------------------|--------------------------------|
A|--------------------------------|--------------------------------|
E|--------------------------------|--------------------------------|

 1 e + i 2 e + i 3 e + i 4 e + i 1 e + i 2 e + i 3 e + i 4 e + i
G|9---9---9---9---9---9---9---9-9\|7---7---7-------7-------7-7-7-7\|
D|--------------------------------|--------------------------------|
A|--------------------------------|--------------------------------|
E|--------------------------------|--------------------------------|

 1 e + i 2 e + i 3 e + i 4 e + i 1 e + i 2 e + i 3 e + i 4 e + i
G|4---4---4---4---4---4---4---4-4/|5---5---5---5---5---5---5---5-5/|
D|--------------------------------|--------------------------------|
A|--------------------------------|--------------------------------|
E|--------------------------------|--------------------------------|

 1 e + i 2 e + i 3 e + i 4 e + i 1 e + i 2 e + i 3 e + i 4 e + i
G|9---9---9---9---9---9---9---9-9/|10----10----10----------10-10-10-10-10-10-10-10|
D|--------------------------------|-----------------------------------------------|
A|--------------------------------|-----------------------------------------------| Play whole verse x2
E|--------------------------------|-----------------------------------------------|

Chorus: 01:09:

 1 e + i 2 e + i 3 e + i 4 e + i 1 e + i 2 e + i 3 e + i 4 e + i
G|--------------------------------|--------------------------------|
D|--------------------------------|--------------------------------|
A|------------1---1--/3---3-------|------------1-1-1--/3---3-------|
E|1---3---3-------------------1-1-|1---3---3-------------------1-1-|

 1 e + i 2 e + i 3 e + i 4 e + i 1 e + i 2 e + i 3 e + i 4 e + i
G|--------------------------------|--------------------------------|
D|--------------------------------|--------------------------------|
A|------------1-1-1--/3---3-------|------------1-1-1--/3---3-------|
E|1---3---3-------------------1---|1---3---3-------------------1---|


Verse 2: 01:20:

 1 e + i 2 e + i 3 e + i 4 e + i 1 e + i 2 e + i 3 e + i 4 e + i
G|7---7---7---7---7---7---7---7-7\|5---5---5---5---5---5---5---5-5/|
D|--------------------------------|--------------------------------|
A|--------------------------------|--------------------------------|
E|--------------------------------|--------------------------------|

 1 e + i 2 e + i 3 e + i 4 e + i 1 e + i 2 e + i 3 e + i 4 e + i
G|9---9---9---9---9---9---9---9-9\|7---7---7-------7-------7-7-7-7\|
D|--------------------------------|--------------------------------|
A|--------------------------------|--------------------------------|
E|--------------------------------|--------------------------------|

 1 e + i 2 e + i 3 e + i 4 e + i 1 e + i 2 e + i 3 e + i 4 e + i
G|4---4---4---4---4---4---4---4-4/|5---5---5---5---5---5---5---5-5/|
D|--------------------------------|--------------------------------|
A|--------------------------------|--------------------------------|
E|--------------------------------|--------------------------------|

 1 e + i 2 e + i 3 e + i 4 e + i 1 e + i 2 e + i 3 e + i 4 e + i
G|9---9---9---9---9---9---9---9-9/|10----10----10----------10-10-10-10-10-10-10-10|
D|--------------------------------|-----------------------------------------------|
A|--------------------------------|-----------------------------------------------| Play whole verse x2
E|--------------------------------|-----------------------------------------------|


Chorus: 02:05:

 1 e + i 2 e + i 3 e + i 4 e + i 1 e + i 2 e + i 3 e + i 4 e + i
G|--------------------------------|--------------------------------|
D|--------------------------------|--------------------------------|
A|------------1---1--/3---3-------|------------1-1-1--/3---3-------|
E|1---3---3-------------------1---|1---3---3-------------------1-1-|

 1 e + i 2 e + i 3 e + i 4 e + i 1 e + i 2 e + i 3 e + i 4 e + i
G|--------------------------------|--------------------------------|
D|--------------------------------|--------------------------------|
A|------------1-1-1--/3---3-------|------------1-1-1--/3---3---3---|
E|1---3---3-------------------1---|1---3---3-----------------------|

 1 e + i 2 e + i 3 e + i 4 e + i 1 e + i 2 e + i 3 e + i 4 e + i
G|--------------------------------|--------------------------------|
D|--------------------------------|--------------------------------|
A|------------1---1--/3---3-------|------------1-1-1--/3---3-------|
E|1---3---3-------------------1---|1---3---3-------------------1-1-|

 1 e + i 2 e + i 3 e + i 4 e + i 1 e + i 2 e + i 3 e + i 4 e + i
G|--------------------------------|--------------------------------|
D|--------------------------------|--------------------------------|
A|------------1-1-1--/3---3-------|------------1-1-1--/3---3-------|
E|1---3---3-------------------1---|1---3---3-------------------1---|


Verse: 02:28:

 1 e + i 2 e + i 3 e + i 4 e + i 1 e + i 2 e + i 3 e + i 4 e + i
G|7---7---7---7---7---7---7---7-7\|5---5---5---5---5---5---5---5-5/|
D|--------------------------------|--------------------------------|
A|--------------------------------|--------------------------------|
E|--------------------------------|--------------------------------|

 1 e + i 2 e + i 3 e + i 4 e + i 1 e + i 2 e + i 3 e + i 4 e + i
G|9---9---9---9---9---9---9---9-9\|7---7---7-------7-------7-7-7-7\|
D|--------------------------------|--------------------------------|
A|--------------------------------|--------------------------------|
E|--------------------------------|--------------------------------|

 1 e + i 2 e + i 3 e + i 4 e + i 1 e + i 2 e + i 3 e + i 4 e + i
G|4---4---4---4---4---4---4---4-4/|5---5---5---5---5---5---5---5-5/|
D|--------------------------------|--------------------------------|
A|--------------------------------|--------------------------------|
E|--------------------------------|--------------------------------|

 1 e + i 2 e + i 3 e + i 4 e + i 1 e + i 2 e + i 3 e + i 4 e + i
G|9---9---9---9---9---9---9---9-9/|10----10----10----------10-10-10-10-10-10-10-10|
D|--------------------------------|-----------------------------------------------|
A|--------------------------------|-----------------------------------------------| Play whole verse x2
E|--------------------------------|-----------------------------------------------|


Chorus: 03:13:

 1 e + i 2 e + i 3 e + i 4 e + i 1 e + i 2 e + i 3 e + i 4 e + i
G|--------------------------------|--------------------------------|
D|--------------------------------|--------------------------------|
A|------------1---1--/3---3-------|------------1-1-1--/3---3-------|
E|1---3---3-------------------1-1-|1---3---3-------------------1-1-|

 1 e + i 2 e + i 3 e + i 4 e + i 1 e + i 2 e + i 3 e + i 4 e + i
G|--------------------------------|--------------------------------|
D|--------------------------------|--------------------------------|
A|------------1-1-1--/3---3-------|------------1-1-1--/3---3---3---|
E|1---3---3-------------------1---|1---3---3-----------------------|

 1 e + i 2 e + i 3 e + i 4 e + i 1 e + i 2 e + i 3 e + i 4 e + i
G|--------------------------------|--------------------------------|
D|--------------------------------|--------------------------------|
A|------------1-1-1--/3---3-------|------------1-1-1--/3---3-------|
E|1---3---3-------------------1-1-|1---3---3-------------------1---|

 1 e + i 2 e + i 3 e + i 4 e + i 1 e + i 2 e + i 3 e + i 4 e + i
G|--------------------------------|--------------------------------|
D|--------------------------------|--------------------------------|
A|------------1-1-1--/3---3-------|------------1-1-1--/3---3-------|
E|1---3---3-------------------1---|1---3---3-------------------1-1-|


Outro: 03:36:

 1 e + i 2 e + i 3 e + i 4 e + i
G|--------------------------------|
D|--------------------------------|
A|--------------------------------|
E|1~------------------------------|

The quiet ending doesn't have bass.

************************************

| /  Slide up
| \  Slide down
| ~  Vibrato

************************************

Almost there ...

Sign in to get your own page with links to favourite songs and more. You are just one click away...

Login with Facebook Login with Google