Log in

One click and you are in

Login with Facebook Login with Google

Why sign up and log in

Guitar Tabs Explorer
Mxpx bass tabs for Unopposed

Bass tabs

Album: Pokinatcha
Copyright: 1994 Tooth & Nail Records
Tabbed by: Will Gorman


Intro (part 1):

G-----------------------------------------
D-----------------------------------------
A-----------3-3-3-3-----------------3-3---
E--1-1-1-1------------4-4-4-4-3-3---------
Intro (part2):

G----------------------------------------------------------------------------
D----------------------------------------------------------------------------
A---------------3----------------4----------------3--4--4--3--3--1--1--3--3--
E-1-1-1-1-1--3-----1-1-1-1-1--3----1-1-1-1-1--3------------------------------

(the second time you play it, it ends with just: E--4---3---1---3--)


Verse:

G----------------------------------------------------------------------
D----------------------------------------------------------------------
A------------------------------------4-4-4-4-4-4-4-4-3-3-3-3-3-3-3-3---
E--1-1-1-1-1-1-1-1-4-4-4-4-4-4-4-4-------------------------------------


Pre-Chorus:

G----------------------
D----------------------
A-------------4--4--1--
E--1--1--4-------------

Chorus:

G-----------------------------------------------------------------------------
D-----------------------------------------------------------------------------
A----------------------------------4-3-----------------------------------4-3--
E--1-1-1-1-1-1-1-1-1-1-1-1-1-1-1-1------4-4-4-4-4-4-4-4-4-4-4-4-4-4-4-4-------

End Chorus:

G--------------------------------------------
D--------------------------------------------
A--4--3---------------4--3--6--6-6-6---------
E---------1--1-1-1---------------------------

(the last time you play this, replace the last 6 notes with:
A--4--3------------------- )
E---------4--4-4-4--------

 The cool part that starts out with just the bass and drums:

G------------------
D------------------
A------4-3---------
E--1-4------4-3----

End of that part:

G--------------------------------
D--------------------------------
A----------3---------------------
E--1--1-1-----3--3-3-3-4-3-------


Ok, that's everything (I think). There are a lot of little parts in
this song, so listen to the CD to get the order and the number of times
you play them. I'm not entirely sure about the accuracy of a few of the
parts, but for the most part everything is right. If you have any
corrections or comments, I'd be more than happy to get them at:
gorman5@juno.com

Almost there ...

Sign in to get your own page with links to favourite songs and more. You are just one click away...

Login with Facebook Login with Google