Log in

One click and you are in

Login with Facebook Login with Google

Why sign up and log in

Guitar Tabs Explorer
Mxpx bass tabs for Today is in my way

Bass tabs

Today Is In My Way

By: MxPx

              Bass Tab

Intro and Outro:

G:---------------------------------------------------------------
D:------------------5555555555/ 7777777777-----33333---222--00--
A:-3333333333----------------------------------------------------
E:-------------------------------------------------------------

G: --------------------------------------------------------------
D: ------------------5555555555/ 7777777777----3---2---0--
A:-3333333333--------------------------------------------------
E: --------------------------------------------------------------
Verse  Play 2X

G: --------------------------------------------------------
D: --------------------------------------------------------
A: -3333333-------------------------------------------
E: -------------3333333-5555555-1111111-----


Pre-Chorus  Play 2X

G: --------------------------------------------
D: --------------------------------------------
A: -33333----------------------------------
E: ----------33333-55555-11111------


Chorus Part I  Play 2X

G:---------------------------------------------------------------
D:---------------------------------------------------------------
A:----------------------------3333333333-------------
E:-5555555555--1111111111---------------------3333333333--

Chorus Part II  Play 2X

Today   is in my way
G: -------------------------------------------
D: -------------------------------------------
A: -33333---------------------------------
E: ----------33333-55555-11111-----

1st Bass Solo:

G:
------------------------------------------------------------------------------
-----------------------------------
D:
------------------0----------5---0----------7----0--3--2--0------------------0
----------5---0---------7-
A:
---0--3--0--5------3--0-----------3--0------------------------0--3--0--5------
3--0----------3--0-----
E:
------------------------------------------------------------------------------
-----------------------------------

G: ---------------
D: ---3--2--0---
A: ---------------
E: ---------------

Then...

Verse

Pre-Chorus

Chorus Part I

Chorus Part II

2nd Bass Solo  Play 4X

G:
------------------------------------------------------------------------------
----
D: -------------------5555555555/ 7777777777---33333--222--00--
A:
-3333333333----------------------------------------------------------------
E:
------------------------------------------------------------------------------
-----


Chorus  Part II  Play 4X

Outro

                 The End

Figured out and tabbed by: Cody

Changes, Questions, Suggestions, Looking For Bass Tab?
E-Mail me at  PissAntz@aol.com

 Albino's Punk and Ska Stuff

Almost there ...

Sign in to get your own page with links to favourite songs and more. You are just one click away...

Login with Facebook Login with Google