Log in

One click and you are in

Login with Facebook Login with Google

Why sign up and log in

Guitar Tabs Explorer
Mxpx chords for Southbound

Guitar chords

Submitted by: Tyler Grove (hotmale346@hotmail.com)

I added the solo on the end.
It sounds right, but email me for suggestions.

A chord diagramG+G
it's all ...
A chord diagramA augmentedA                             A chord diagramD MajorD
the same old with a ...
A chord diagramG+G
that's fine ...
             A chord diagramA augmentedA                              A chord diagramD MajorD
there's only one ...
     chorus
A chord diagramC majorC       A chord diagramD MajorD                A chord diagramG+G
southbound ...
       A chord diagramC majorC        A chord diagramD MajorD           A chord diagramG+G
i'm driving and ...
             A chord diagramC majorC                A chord diagramD MajorD       A chord diagramG+G
there's no place ...
A chord diagramC majorC                       A chord diagramD MajorD
staring at white lines on ...
A chord diagramG+G  A chord diagramA augmentedA  A chord diagramC majorC
A chord diagramG+G  A chord diagramA augmentedA  A chord diagramC majorC  A chord diagramD MajorD
A chord diagramG+G  A chord diagramA augmentedA  A chord diagramC majorC
A chord diagramG+G  A chord diagramA augmentedA  A chord diagramC majorC  A chord diagramD MajorD

A chord diagramG+G
been on the ...
   A chord diagramA augmentedA                                A chord diagramD MajorD
i gotta get back to ...
A chord diagramG+G
hang out, ...
  A chord diagramA augmentedA                                A chord diagramD MajorD
i gotta get back to the ...
   chorus
A chord diagramC majorC       A chord diagramD MajorD                  A chord diagramG+G
southbound ...
A chord diagramC majorC             A chord diagramD MajorD              A chord diagramG+G
windows down and ...
        A chord diagramC majorC       A chord diagramD MajorD          A chord diagramG+G
i'm driving ...
            A chord diagramC majorC                A chord diagramD MajorD        A chord diagramG+G
there's no place ...
A chord diagramC majorC                    A chord diagramD MajorD
playing every night with ...
A chord diagramG+G  A chord diagramA augmentedA  A chord diagramC majorC
A chord diagramG+G  A chord diagramA augmentedA  A chord diagramC majorC  A chord diagramD MajorD
A chord diagramG+G  A chord diagramA augmentedA  A chord diagramC majorC
A chord diagramG+G  A chord diagramA augmentedA  A chord diagramC majorC  A chord diagramD MajorD

Part 1 (play 2x)

e--------------------------------------------------
B--------------------------------------------------
G--------------------------------------------------
D-------5--4--5--7--5--------7--5--7--9h10p9--7----
A--5---------------------3-------------------------
E--------------------------------------------------


Part 2  (play 2x then back to Part 1  2x)

e--------------------------------------------------
B--------------------------------------------------
G-----7----5--4h5p4--------7----5--4h5p4-----------
D--5----5------------5--5----5------------5--------
A--------------------------------------------------
E--------------------------------------------------

e--------------------------------------------------
B--------------------------------------------------
G-----7----5--4h5p4--------------------------------
D--5----5------------5--7---7--9-10-9--5--7--------
A--------------------------------------------------
E--------------------------------------------------

Almost there ...

Sign in to get your own page with links to favourite songs and more. You are just one click away...

Login with Facebook Login with Google