Log in

One click and you are in

Login with Facebook Login with Google

Why sign up and log in

Guitar Tabs Explorer
Mxpx chords for Something more

Guitar chords

Band: MxPx
Album: Teenage Politics (1995)
Written by Mike Herrera
Transcribed by Luke Knox (lukeknox@iname.com) e-mail me!

This is an awesome punk song by MxPx, one of my favorite bands. Hope you
like it:
[Intro]: (Play this 2x)
E--------------------------------------------
B--------------------------------------------
G--4-4-4-5-4--4-4-4-5-4--4-4-4-5-4---5---7---
D--5-5-5-5-5--4-4-4-5-4--2-2-2-2-2---5---7---
A------------------------------------3---5---
E--------------------------------------------
                                     A chord diagramC majorC   A chord diagramD MajorD


[Verse]:
(Play this 2x)
E-----------------------
B-----------------------
G-------4---9---5---7---
D---5---4---9---5---7---
A---5---2---7---3---5---
E---3-------------------
    A chord diagramG+G   A chord diagramBB   Eii A chord diagramC majorC   A chord diagramD MajorD

(Then play the intro, playing each part of the intro 2x)


[Chorus]: (Play this 2x)
(s-slide)
E--------------------------------------
B--------------------------------------
G-----------4---5---7------------------
D---5---2---4---5---7-----4-5s7-7s5-4--
A---5---2---2---3---5---5--------------
E---3---0------------------------------
    A chord diagramG+G   A chord diagramE MajorE   A chord diagramBB   A chord diagramC majorC   A chord diagramD MajorD


That's it!! Please send me any requests, comments, changes, questions, or
anything else on your mind.
Thanks

Luke

Almost there ...

Sign in to get your own page with links to favourite songs and more. You are just one click away...

Login with Facebook Login with Google