Log in

One click and you are in

Login with Facebook Login with Google

Why sign up and log in

Guitar Tabs Explorer
Mxpx tabs for Scooby doo where are you

Guitar tabs

Song Title: Scooby Doo, Where Are You?
Album: Scooby Doo OST
Tabbed by: Marcin 'Czaszi' Demczuk

Tuning: Standard.

   repeat few times|   verse    first muted, then pure distortion
   h   e              h  c# f#
E--2---2-----------|--2--4--2-----------------
H--2---5-----------|--2--4--2-----------------
G--4---4-----------|--4--6--2-----------------
D--4---2-----------|--4--6--4-----------------
A--2---2-----------|--2--4--4-----------------
E--2---2-----------|--4--4--4-----------------
Bridge
   e   h
E--2---2--
H--5---2--
G--4---4--
D--2---4--
A--2---2--
E--2---2--

Before solo
E--2-2-2-
H--2-5-2-
G--4-4-4-
D--4-2-4-
A--2-2-2-
E--2-2-2-


Solo
E----------------------------------------------------------
H----------------------------------------------------------
G--8-6-4--4-4-8--------8-8-6-4--8-6-4--6-8-9--------8-8-6-4
D--------------6--4-4-4-----------------------4-4-4--------
A----------------------------------------------------------
E----------------------------------------------------------


Ending
"I know we catch that..."
E--2---2--
H--2---2--
G--2---4--
D--4---4--
A--4---2--
E--2---2--

Almost there ...

Sign in to get your own page with links to favourite songs and more. You are just one click away...

Login with Facebook Login with Google