Log in

One click and you are in

Login with Facebook Login with Google

Why sign up and log in

Guitar Tabs Explorer
Mxpx bass tabs for Punk rawk show

Bass tabs

PUNK RAWK SHOW
MxPx
We aint got no place to go..
---------------------------|
---------------------------|
-3---5---------------------|
---5----3------------------|

Aint got no money to pay.....

-----------------------------------|
-----------------------------------|
---3-------------------------------|
1-----3---5------------------------|

were going to a punk rawk show.
---------------|
---------------|
---------------|
-1----3--------|

tabbed by Jarry
uglypunk@aol.com

Almost there ...

Sign in to get your own page with links to favourite songs and more. You are just one click away...

Login with Facebook Login with Google