Log in

One click and you are in

Login with Facebook Login with Google

Why sign up and log in

Guitar Tabs Explorer
Mxpx bass tabs for New york to nowhere

Bass tabs

Band:mxpx
Album:life in general
tabbed by:chris (NSherw5893@aol.com)

that was a hell of a lot harder then it sounded!

G:--------23--23--5-32-0----23--23-5-32-0---23-----23-532-0----23----235320
D:333---3---------------00-0---0---------------------------
A:--------------------------------------------------------11-1-1-33-3------3
E:---------------------------------------------------------------


G:---------------------------------------------------------------
D:----------------5-33333333-------------------------------------
A:-3x3x3x33------------------------------------------------------
E:---------------------------------------------------------------


G:---------------------------------------------------------------
D:---------------------------------------------------------------
A:5555555555555555------------------------------------3333333333333333
E:-----------------1111111111111111--3333333333333333-


G:---------------------------------------------------------------
D:---------------------------------------------------------------
A:-5555555555555555--1111111111111111--3333333333333333----------
E:---------------------------------------------------------------


G:---------------------------------------------------------------
D:3x3x3x33-------------------------------------------------------
A:---------------5-3333333333333333--55555555--33333333--11111111111111111
E:---------------------------------------------------------------


G:---------------------------------------------------------------
D:3333333333333333-----------------------------------------------
A:------------------3333333333333333--55555555--33333333-1111111111111111
E:---------------------------------------------------------------


G:---------------------------------------------------------------
D:3xx------------------------2xx-3-------------------------------
A:-----1xx-5xx-1xx-2xx-------------------------------------------
E:---------------------------------------------------------------

Almost there ...

Sign in to get your own page with links to favourite songs and more. You are just one click away...

Login with Facebook Login with Google