GuitarTabsExplorer icon
GuitarTabsExplorer icon

Log in

Songbook

  • Log in to add and see bookmarks

Last visited songs

    No songs visited yet...

Gsf by MxPx

Chords with lyrics

Title: GSF (Girls Schmirls Foundation)
Album: Let it Happen
Tabbed By: Randy Burden ([email protected])

Presented in 2 ways: chords for all those who want to impress the ladies
 and powerchords for those who are either lazy or prefer simplicity.
 Also, if playing on an acoustic guitar, the chords are a much better
 way to go because they give a more fuller sound.


Chords:          Powerchords:
Chord diagramG+G 355433         Chord diagramG+G 355XXX
Chord diagramE MajorE 022100 (low)   Chord diagramE MajorE X799XX (low)
  X76450 (high)
Chord diagramC majorC X32010         Chord diagramC majorC X355XX
Chord diagramD MajorD X00232         Chord diagramD MajorD X577XX
Chord diagramBB X24442         Chord diagramBB X244XX

Intro:

E------------------------------------------------------------------------=

B------------------------------------------------------------------------=

G------------------------------------------------------------------------=

D------------------------9----------------5-----------------7------------= x 2
A--------5---------7-7-7---7-7------3-3-3---3--3------5-5-5---5--5-------=
E--3-3-3---3-3-----------------------------------------------------------=


Verse:
              Chords                             Powerchords


   Chord diagramG+G        Chord diagramE MajorE        Chord diagramC majorC        Chord diagramD MajorD  Chord diagramG+G  Chord diagramE MajorE   Chord diagramC majorC        Chord diagramD MajorD
E--3--------0--------0--------2------|-----------------------------------=

B--3--------0--------1--------3------|-----------------------------------=

G--4--------1--------0--------2------|-----------9--------5--------7-----=

D--5--------2--------2--------0------|--5--------9--------5--------7-----=

A--5--------2--------3--------0------|--5--------7--------3--------5-----=

E--3--------0--------X--------X------|--3--------X--------X--------X-----=

  You      be       me       see       You      be       me      see
Prechorus:

   Chord diagramG+G        Chord diagramBB        Chord diagramC majorC        Chord diagramD MajorD         Chord diagramG+G        Chord diagramBB        Chord diagramC majorC        Chord diagramD MajorD
E--3--------2--------0--------2------|-----------------------------------=

B--3--------4--------1--------3------|-----------------------------------=

G--4--------4--------0--------2------|-----------4--------5--------7-----=

D--5--------4--------2--------0------|--5--------4--------5--------7-----=

A--5--------2--------3--------0------|--5--------2--------3--------5-----=

E--3--------X--------X--------X------|--3--------X--------X--------X-----=

  time..          time..


Chorus:

   Chord diagramE MajorE        Chord diagramBB        Chord diagramC majorC        Chord diagramD MajorD         Chord diagramE MajorE        Chord diagramBB        Chord diagramC majorC        Chord diagramD MajorD
E--0--------2--------0--------2------|-----------------------------------=

B--5--------4--------1--------3------|-----------------------------------=

G--4--------4--------0--------2------|--9--------4--------5--------7-----=

D--6--------4--------2--------0------|--9--------4--------5--------7-----=

A--7--------2--------3--------0------|--7--------2--------3--------5-----=

E--X--------X--------X--------X------|--X--------X--------X--------X-----=

 Girls  good     more      way       Girls   good     more      way

[ Privacy | About us ]

Welcome to the guitar community

Why join and log in?
- Get songbook with favourite songs
- Get custom made front page
- Submit chords and tabs
- Submit guitar-cover videos
- Get a lot of thumbs up for your work

Songbook

Last visited songs

Site
Home
Search
Community
Submit chords
Submit video

Video

No video for this page. Check out how you can submit guitar-cover videos here

Search tabs and chords

Browse by artist

A B C D E F G H I J K L M N O P Q R S T U V W X Y Z #


Menu

Search

Video

Bookmark

Login