Log in

One click and you are in

Login with Facebook Login with Google

Why sign up and log in

Guitar Tabs Explorer
Mxpx bass tabs for Everything sucks  when you re gone

Everything Sucks When You Re Gone bass tab by Mxpx

Mxpx bass tabs for Everything sucks  when you re gone

Bass tabs

MxPx - Everything Sucks (When You´re Gone)
Ripped: Raúl Castañeda kerplunks@hotmail.com

Verse: "All I ever needed..."
G|-----------------------------------------------|
D|-----------------------------------------------|
A|---------------------------3-3-3-3-3-3-3-3-3-3-|
E|-1-1-1-1-1-1--3-3-3-3-3-3----------------------|

"Come on over..."
G|----------------------------------------------------|
D|----------------------------------------------------|
A|----------------------------------------------------|
E|-1-1-1-1-1-1--3-3-3-3-3-3--4-4-4-4-4-4--5-5-5-5-5-5-|
Pre:Chorus: "You're in my heart and on my..."
G|-------------------------------|
D|-------------------------------|
A|-------------------------5-3-0-|
E|-1-1-1-1-1-1--3-3-3-3-3--------|


Chorus: "Everything sucks when..."
G|----------------------------------------|
D|----------------------------------------|
A|-------3-3-3-3-3-3-3-3--0-0-0-0-0-0-0-0-|
E|-1~-3-----------------------------------|

"Everything sucks when you're go----ne...."
G|-----------------------------------------------------------------|
D|-----------------------------------------------------------------|
A|-------------------------3-3-3-3-3-3--1-1-1-1-1-1--0-0-0-0-0-0-0-|
E|-1-1-1-1-1--3-3-3-3-3-3------------------------------------------|


Bridge: "It's not ok..."
G|--------------------------------------------|
D|--------------------------------------------|
A|-3-3-3-3-3-3-3-3----------------------------|
E|-------------------4-4-4-4-4-4--1-1-1-1-1-1-|

"Ran...After...Me..."
G|-----------------------------------------------------|
D|-----------------------------------------------------|
A|------------------1-1-1-1-1-1-1-1--3-3-3-3-3-3-3-3-3-|
E|-4-4-4-4-4-4-4-4-------------------------------------|


Outro:
G|---------|
D|---------|
A|---------|
E|-8~--8\0-|

Almost there ...

Sign in to get your own page with links to favourite songs and more. You are just one click away...

Login with Facebook Login with Google