Log in

One click and you are in

Login with Facebook Login with Google

Why sign up and log in

Guitar Tabs Explorer
Mxpx bass tabs for Cristalena

Bass tabs

Band:MXPX
Album:life in general
tabbed by:chris (NSherw5893@aol.com)
G:---------------------------------------------------------------
D:---------------------------------------------------------------
A:--5 a bunch of times----------------------------------
E:---------------------------------------------------------------


G:---------------------------------------------------------------
D:---------------------------------------------------------------
A:-----3----5-3------3-----5-3-----------------------------
E:--3----3--------3------3-----------------------------------


G:---------------------------------------------------------------
D:---------------------------------------------------------------
A:----3----5-3------3------5--3------------------------------
E:-3----3--------0------0-------------------------------------


G:---------------------------------------------------------------
D:---------------------------------------------------------------
A:----3-------5-------------------------------------------------
E:-0-----3------------------------------------------------------

i think that is all but i cant figure out the last part he does so if some
one
can please send it in

Almost there ...

Sign in to get your own page with links to favourite songs and more. You are just one click away...

Login with Facebook Login with Google