Log in

One click and you are in

Login with Facebook Login with Google

Why sign up and log in

Guitar Tabs Explorer
Mxpx bass tabs for Anywhere but here

Bass tabs with lyrics

Album:Pokinatcha
Band:MxPx
Tabbed by:BlueMilk@aol.com
	This song has a really crunch/fuzz distortion so the strumming is hard to pick out but I'm pretty sure I'm right, but when I play it I just strum until the change or whenever and so does MxPx when they are playing live probably. On the solo he just goes as fast as he can so he some time strums the D (G:7) or C (G:5)more than twice but he keeps the same rhythym. Std. tuning, I put in the bass part to make it more complete. Send any
requests, comments, or flames if you want to.
  Intro
G :------------------|
D :------------------|
A :3---0---3--0------|
E :------------------|

  Verse
G :----------------|------------------|
D :0---------------|------------------|
A :----2-----------|3-3-0--3-3-0------|
E :--------3-------|------------------|
  It seems like life.......

  Fill 1      Fill 2       Fill 3
G :----------------|------------------|--------------------------|
D :0---------------|------------------|-------------------------0|
A :----------------|3-3-0--3-3-0------|------------2-3-3-2-3-3---|
E :----------------|------------------|2-3-3-2-3-3---------------|

  Chorus 1
G :------------------|
D :0-----------------|
A :--------2-3-------|
E :---2-3------------|
  I should have saw.....

  Chorus 2
G :-------------------------------|------------------------|
D :--0-------------0--------------|------------------------|
A :-------------------------------|------------2-3-3-2-3-3-|
E :-------------------------------|2-3-3-2-3-3-------------|
              And it's out......

  Guitar Solo
G :----------------------|
D :------4----------5----|
A :----------------------|
E :----------------------|

Intro

Verse x4
Fill 1

Chorus 1 x4

Chorus 2 x4
Guitar Solo x8
Fill 2

Verse x4
Fill 2
Fill 1

Chorus 1 x4

Chorus 2 x4
Fill 2

Verse x4
Fill 2
Fill 1

Chorus 1 x4

Chorus 2 x4
Guitar Solo x8
Fill 2 x2
Fill 1
Fill 3

Almost there ...

Sign in to get your own page with links to favourite songs and more. You are just one click away...

Login with Facebook Login with Google