Log in

One click and you are in

Login with Facebook Login with Google

Why sign up and log in

Guitar Tabs Explorer
Mutual Benefit guitar tabs for Strong swimmer

Guitar tabs with lyrics

-------------------------------------------------------------------------------
                             Strong Swimmer (Live) - Mutual Benefit
-------------------------------------------------------------------------------
Tabbed by: Joey Ferguson
E-mail:joeyferg@gmail.com

*In my opinion this is their best tune. I learned by ear the live version from the spotify sessions.
I noticed that this is usually played an octave above than written here, however if playing solo and or
acoustically it sounds better to play at this octave. Have fun.

Tuning: Standard
Key: A chord diagramC majorC Major

       [C]                         [Am]

e|---------------|         e|-----------------|
B|-8------8------|         B|-10------10------|
G|---9------9----|         G|----9-------9----|
D|-----10-----10-|         D|------10------10-|
A|---------------|         A|-----------------|
E|---------------|         E|-----------------|

       [F]                         [Dm]

e|---------------|         e|--------------|
B|-1------1------|         B|-3------3-----|
G|---2------2----|         G|---2------2---|
D|-----3------3--|         D|-----3------3-|
A|---------------|         A|--------------|
E|---------------|         E|--------------|

Intro: A chord diagramC majorC A chord diagramA minorAm (repeat)

A chord diagramC majorC A chord diagramA minorAm (repeat)
You were such....
a strong swimmer
and you


A chord diagramFF A chord diagramDmDm (repeat)
taught me how
to never fear those


A chord diagramC majorC A chord diagramA minorAm (repeat)
tall waves
and you stayed
in those deep waters
always


A chord diagramFF A chord diagramDmDm (repeat)
inviting
to a bed on the


A chord diagramC majorC A chord diagramA minorAm (repeat)
bottom
and that


A chord diagramFF (repeat)
current took you away and it

A chord diagramDmDm (repeat)
made you pay and pay

A chord diagramC majorC A chord diagramA minorAm (repeat)
when I saw you I didn't know your name


it was such
a long winter
when the ice had thawed
there wasn't much that survived it
it takes more
than a strong swimmer
to stay above water
with a body divided

and that current took you away
and it made you pay and pay
when I saw you
I didn't know your name
when I see you
they'll give us different names

Almost there ...

Sign in to get your own page with links to favourite songs and more. You are just one click away...

Login with Facebook Login with Google