Log in

One click and you are in

Login with Facebook Login with Google

Why sign up and log in

Guitar Tabs Explorer
Mustasch tabs for Muddy waters

Guitar tabs

song: muddy waters
band: mustasch
album: above all
tabbed by: joel (j_sorensson@hotmail.com)
Tuning: Down a whole step +drop C, but I belive Mustasch tune all strings
down two steps.


Main riff:
d---------------------------------
a---------------------------------
f---------------------------------
c---------5-----5---5-----5---5-7-
g---------3-----3---3-----3---3/5-
c-0-0-0-0---0-0---0---0-0---0-----


Verse riff:
d-----/5----\3-----
a-3----------------
f------------------ (Played by two guitars)
c------------------
g-5---/12---\10----
c------------------


Heavy ass sabbath-riff:
d-----------------------------------------------------
a-----------------------------------------------------
f-----------------------------------------------------
c-------------------------------------------------6~~-
g-0-0-0-0-1h3-3---1h3-------0-0-0-0-1h3-3---1h3-------
c-0-0-0-0-------------0-3~~-0-0-0-0-------------0-----


Unison solo:
d-------------------------------
a-------------------------------
f----5-7------------5--7--7b8---
c-7-------5----5-7--------------
g------------8------------------
c-------------------------------

.muddy. questions? comments? corrections? pics of cheese?
mail me.

_________________________________________________________________

Almost there ...

Sign in to get your own page with links to favourite songs and more. You are just one click away...

Login with Facebook Login with Google