Log in

One click and you are in

Login with Facebook Login with Google

Why sign up and log in

Guitar Tabs Explorer
Mustasch guitar tabs for Into the arena

Guitar tabs

song: into the arena
band: mustasch
album: above all
tabbed by: joel (j_sorensson@hotmail.com)
Tuning: Down a whole step.
Chords notated by fingering not pitch. (So a A chord diagramD MajorD  here is really a C.)


d--------------------------------
a--------------------------------
f--------------------------------
c--------------------------------
g----2-3---3-5---2-3---3-5---2-3-
d-0------0-----0-----0-----0-----


Chords over main riff:
A chord diagramC5C5 A chord diagramD5D5 A chord diagramE5E5 A chord diagramE5E5


Melody over main riff:
d-------------------------  ---------------------
a-------------------------  ---------------------
f-------------------------  ---------------------
c-11/12\11----11/12\11----  11/12\11----7--8--9--
g----------7-----------9--  ---------7-----------
d-------------------------  ---------------------


Chorus thing:
d----------------------------------------------
a----------------------------------------------
f----------------------------------------------
c----------------------------------------------
g--------3-3-3-------3----------5-5-5-------5--
d-0--0-0-------0-0-0-----0--0-0-------0-0-0----

d----------------------------------------------
a----------------------------------------------
f----------------------------------------------
c----------------------------------------------
g--------7-7-7-------7----------7-7-7-------7--
d-0--0-0-------0-0-0-----0--0-0-------0-0-0----

Heavy break:
d---------------------------------------------
a---------------------------------------------
f---------------------------------------------
c---------------------------------------------
g---7-7-6----7-7-6-6-7----6-6-5----6-6-5-5-6--
d-0--0-----0------------0--0-----0------------


return riff:
d-----------------------------------
a-----------------------------------
f-----------------------------------
c-----------------------------------
g-5-7-7--5-7--8~8~-5-7-7--5-7--3~3~-
d----0--0---0---------0--0---0------

.crushing. questions? comments? corrections? pics of cheese?
mail me.

_________________________________________________________________

Almost there ...

Sign in to get your own page with links to favourite songs and more. You are just one click away...

Login with Facebook Login with Google