Log in

One click and you are in

Login with Facebook Login with Google

Why sign up and log in

Guitar Tabs Explorer
Mustasch tabs for Insanity walls

Guitar tabs

ong: insanity walls
band: mustasch
album: above all
tabbed by: joel (j_sorensson@hotmail.com)
Tuning: Down two whole step +drop Bb. Yup, this is low. You'll
probably need thicker strings for this one.


intro:
c---------------------
g---------------------
eb--------------------
bb--------------------
f---------------------
bb-8-10--8-7-6-0-6----


Cool riff:  w/ wah
c--------------
g--------------
eb-------------
bb-------------
f--------------
bb-0-5-6-5-6-5-


Disharmonic riff:
c----------------
g----9-10-9-10-9-
eb---7--8-7--8-7-
bb-0-6--7-6--7-6-
f----------------
bb---------------


"up insanity..."
c----------------   -------------
g----------------   -------------
eb-7-------------   -------------
bb-7-------------   -------------
f--5-------------   -------------
bb---0-0-0-3---0-   -3-4-5-6-2-1-


"Ve feck bra me skarp... storsell oppe på kobbe där."

.insane. questions? comments? corrections? pics of cheese?
mail me.

_________________________________________________________________

Almost there ...

Sign in to get your own page with links to favourite songs and more. You are just one click away...

Login with Facebook Login with Google