Log in

One click and you are in

Login with Facebook Login with Google

Why sign up and log in

Guitar Tabs Explorer
Mustasch tabs for I hunt alone

Guitar tabs

song: i hunt alone
band: mustasch
album: above all
tabbed by: joel (j_sorensson@hotmail.com)
Tuning: standard,but I think mustasch plays with
all strings tuned down two steps +drop Bb.


intro riff:
e------------
b------------
g-3--3-3-3-3-
d-3--3-3-3-3-
a-1--1-1-1-1-
e------------


main riff: guitar one
e-------------------------------------------------
b-------------------------------------------------
g-------------------------------------------------
d-8-8----------------8-8--------------------------
a-8-8----------------8-8--------------------------
e-6-6-9-9-9-9-8-8-8--6-6-9-9-9-9-8-8-8--4------2--


main riff: guitar two
e-------------------------------------------------
b-------------------------------------------------
g-------------------------------------------------
d-------------------------------------------------
a-8-8-8-8-8-8-6-6-6--8-8-8-8-8-8-6-6-6------------
e-6-6----------------6-6----------------8------2--

"prey is wounded":
F#5,F5, F5(hi), D#5(hi), C#5, A chord diagramC5C5


fill:
e-------------------------------
b-------------------------------
g-1-3---1-3---1-3---3-2-3-4b5---
d-------------------------------
a-------------------------------
e-------------------------------


blues/funk lick:
e--------------------------------------
b--------------------------------------
g-3-3-3p1---3-3-3p1---3-3-3p1---1-3-3--
d---------3---------3---------3-1-3-3--
a-------------------------------1-1-1--
e--------------------------------------


.hunt. questions? comments? corrections? pics of cheese?
mail me.

_________________________________________________________________

Almost there ...

Sign in to get your own page with links to favourite songs and more. You are just one click away...

Login with Facebook Login with Google