Log in

One click and you are in

Login with Facebook Login with Google

Why sign up and log in

Guitar Tabs Explorer
Mustasch tabs for Down in black

Guitar tabs

song: down in black
band: mustasch
album: above all
tabbed by: joel (j_sorensson@hotmail.com)

Tuning: Standard, but I belive Mustasch tune down two steps.


main riff:
e----------------------------------------
b----------------------------------------
g-------------------------3-3--3--3-3-3--
d---------3-5-5-5-5-5-3~--3-3--3--3-3-3--
a-3-6-3-6-----------------1-1--1--1-1-1--
e----------------------------------------

e----------------------------------------
b----------------------------------------
g---------------------3~--3-3--3--3-3-3--
d---------3-5-5-5-5-5-----3-3--3--3-3-3--
a-3-6-3-6-----------------1-1--1--1-1-1--
e----------------------------------------


verse:  *=play 13 times
e-------------
b--*-----*----
g-5-----5----- (The harmony guitar plays the notes A chord diagramC majorC instead of F, and A chord diagramG+G
d-5-----5----- instead of C.)
a-3--6~-3--1~-
e-------------


Chorus:
A chord diagramC5C5 A chord diagramBb5Bb5 repeat

.simple. questions? comments? corrections? pics of cheese?
mail me.

_________________________________________________________________

Almost there ...

Sign in to get your own page with links to favourite songs and more. You are just one click away...

Login with Facebook Login with Google