Dead Again by Mustasch

Dead Again tab by Mustasch

Guitar tabs

Tabbed by Magnus Hatteland

Mustasch - Dead Again

Drop C


[Intro]- Also main riff

D|---------------------------------------------------------------|
A|---------------------------------------------------------------|
F|---------------------------------------------------------------|
C|---------------------------------------------------------------|
G|----------------------------------3------3---------------------|
C|8/10\0-3-5-5--0-3-5-5----0-3-5-5----6-5----5-3-2-3-5-6-5-3-2---|

   Second part of main riff
D|-----------------------------------------------------------------|
A|-----------------------------------------------------------------|
F|-----------------------------------------------------------------|
C|-----------------------------------------------------------------|Repeat first part except slide
G|-----------------------------3------3-------------------4--------|
C|0-3-5-5--0-3-5-5----0-3-5-5----6-5----5-3-2-3-5-6-5-3-2----------|



[Verse] 0:43                        0:52

D|--------------------------------------------------------|----------------------|
A|--------------------------------------------------------|----------------------|
F|--------------------------------------------------------|----------------------|
C|--------------------------------------------------------|----------------------|
G|--------------------------------------------------------|----------------------|
C|0--0--0-0-0--0-0-0--0--0-000-000---0--0--0-0-0--0-0-0---|0--0-12-12-12-12-12-12|

 0:56
D|---------------------------------------------------------------------
A|---------------------------------------------------------------------
F|---------------|-----------------------------------------------------
C|---------------------------------------------------------------------
G|-------------------5-7-7-8-8-11-11-12--------------------------------
C|0--0--0-0-0--0-0-0--------------------9--9--9-9-9--9-9-9-8--7--12--11

 -----------------------------------------|
 -----------------------------------------|
 -----------------------------------------|
 -----------------------------------------|
 -----------------------------------------|x2
 ---0--0--0-0-0--0-0-0--0--0--0-0-0-0-0-0-|

 1:32
D|---------------------------------------------------------------------|
A|---------------------------------------------------------------------|
F|---------------------------------------------------------------------|
C|---------------------------------------------------------------------|
G|-------------------5-7-7-8-8-11-11-12--------------------------------|
C|0--0--0-0-0--0-0-0--------------------9--9--9-9-9--9-9-9-8--7--12--11|

[Chorus] 1:45   2:00/2:01 start slide and go to second part main riff, and to part one

D|-------------------------------|
A|-------------------------------|
F|-------------------------------|
C|-------------------------------|
G|-------------------------------|
C|0-3-5-5-----0-3-5-5-----0-3-5-5|

 Second part of main riff  2:00/2:01
D|-----------------------------------------------------------------|
A|-----------------------------------------------------------------|
F|-----------------------------------------------------------------|
C|-----------------------------------------------------------------|
G|-----------------------------3------3-------------------4--------|
C|8/10\0-3-5-5--0-3-5-5----0-3-5-5----6-5----5-3-2-3-5-6-5-3-2-----|

 2:14
D|---------------------------------------------------------------|
A|---------------------------------------------------------------|
F|---------------------------------------------------------------|
C|---------------------------------------------------------------|
G|-----------------------------3------3--------------------------|
C|0-3-5-5--0-3-5-5----0-3-5-5----6-5----5-3-2-3-5-6-5-3-2--------|


 2:30 repeat verse
[Verse]

D|---------------|  |---------------------------|
A|---------------|  |---------------------------|
F|---------------|  |---------------------------|
C|---------------|  |---------------------------|
G|---------------|x3 |---------------------------|
C|0--0-000-000---|  |0--0-12-12-12-12-12-12-----|

 2:41

D|---------------------------------------------------------------------
A|---------------------------------------------------------------------
F|---------------------------------------------------------------------
C|---------------------------------------------------------------------
G|-------------------5-7-7-8-8-11-11-12--------------------------------
C|0--0--0-0-0--0-0-0--------------------9--9--9-9-9--9-9-9-8--7--12--11

 -----------------------------------------|
 -----------------------------------------|
 -----------------------------------------|
 -----------------------------------------|
 -----------------------------------------|
 ---0--0--0-0-0--0-0-0--0--0--0-0-0-0-0-0-|

2:54
D|---------------------------------------------------------------------
A|---------------------------------------------------------------------
F|---------------------------------------------------------------------
C|---------------------------------------------------------------------
G|-------------------5-7-7-8-8-11-11-12--------------------------------
C|0--0--0-0-0--0-0-0--------------------9--9--9-9-9--9-9-9-8--7--12--11


 3:00
D|--------------------------------------------------------------------|
A|--------------------------------------------------------------------|
F|--------------------------------------------------------------------|
C|--------------------------------------------------------------------|
G|------------------5-7-7-8-8-11-11-12--------------------------------|
C|0--0--0-0-0-0-0-0--------------------9--9--9-9-9--9-9-9-8--7--12--11|

 3:12 when solo comes:

D|---------------------------------------------------------------------|
A|---------------------------------------------------------------------|
F|---------------------------------------------------------------------|
C|---------------------------------------------------------------------|
G|---------------------------------------------------------------------|x2
C|0--0--0-0-0--0-0-0--0--0--0-0-0--0-0-0--9--9--9-9-9--9-9-9-8-8-10-11-|

3:37 repeat chorus

D|-------------------------------|
A|-------------------------------|
F|-------------------------------|
C|-------------------------------|
G|-------------------------------|
C|0-3-5-5-----0-3-5-5-----0-3-5-5|

 3:54
D|-----------------------------------------------------------------|
A|-----------------------------------------------------------------|
F|-----------------------------------------------------------------|
C|-----------------------------------------------------------------|
G|-----------------------------3------3-------------------4--------|
C|0-3-5-5--0-3-5-5----0-3-5-5----6-5----5-3-2-3-5-6-5-3-2----------|

4:06                                4:25

D|-----------------------------------------------------------------|-------------|
A|-----------------------------------------------------------------|-------------|
F|-----------------------------------------------------------------|-------------|
C|-----------------------------------------------------------------|-----------12|
G|-----------------------------3------3-----------------4----------|-----------12|
C|0-3-5-5--0-3-5-5----0-3-5-5----6-5----5-3-2-3-5-6-5-3-2----------|---000-000-12|



Could not find any tab on this song so made one my self.

Find guitar tabs and chords

A B C D E F G H I J K L M N O P Q R S T U V W X Y Z #