Borderline by Mustasch

Borderline tab by Mustasch

Guitar tabs

Verse and interlude picking rythm is the same but interlude is all muted.


Intro:

PM --|   --|    --|   --|   -|
e|------------------|-----------------------|
B|------------------|-----------------------|
G|------------------|-----------------------|
D|----10\7-----8\7--|-----------------------| x4
A|-----8\9-----6\5--|-----10\7-----8\7---5--|
E|-0-0-----0-0------|-0-0--8\9-0-0-6\5-0-3--|


Verse:

PM    --| ---------------------|
e|-----------------------------------|-------------|
B|-----------------------------------|-------------|
G|-----------------------------------|-3-3-2-2-0~--|
D|-----------------------------------|-------------| x2
A|-----------------------------------|-------------|
E|-(3)p0-0-0-0-0-0-0-0-0-0-0-0-0-0-0-|-------------|

PM    --| ---------------------|
e|-----------------------------------|-----------------|
B|-----------------------------------|-----------------|
G|-----------------------------------|-3-3-2-2-0~--2~--|
D|-----------------------------------|-----------------|
A|-----------------------------------|-----------------|
E|---3p0-0-0-0-0-0-0-0-0-0-0-0-0-0-0-|---------------3-|

PM    --| ---------------------|
e|-----------------------------------|-------------|
B|-----------------------------------|-------------|
G|-----------------------------------|-3-3-2-2-0~--|
D|-----------------------------------|-------------| x2
A|-----------------------------------|-------------|
E|-(3)p0-0-0-0-0-0-0-0-0-0-0-0-0-0-0-|-------------|

PM    --| ---------------------|
e|-----------------------------------|-----------------|
B|-----------------------------------|-----------------|
G|-----------------------------------|-3-3-2-2-0~--2~--|
D|-----------------------------------|-----------------|
A|-----------------------------------|-----------------|
E|---3p0-0-0-0-0-0-0-0-0-0-0-0-0-0-0-|-----------------|


Pre-chorus:

e|-------------|
B|-------------|
G|---0---3-2~--|
D|-2---2-------| x5
A|-------------|
E|-------------|

e|-------------|
B|-------------|
G|---0---------|
D|-2---2-------|
A|---------7-5-|
E|-------6-5-3-|


Chorus:

PM --|   --|    --|   --|   -|
e|------------------|-----------------------|
B|------------------|-----------------------|
G|------------------|-----------------------|
D|----10\7-----8\7--|-----------------------| x4
A|-----8\9-----6\5--|-----10\7-----8\7---5--|
E|-0-0-----0-0------|-0-0--8\9-0-0-6\5-0-3--|


Verse:

PM    --| ---------------------|
e|-----------------------------------|-------------|
B|-----------------------------------|-------------|
G|-----------------------------------|-3-3-2-2-0~--|
D|-----------------------------------|-------------| x2
A|-----------------------------------|-------------|
E|-(3)p0-0-0-0-0-0-0-0-0-0-0-0-0-0-0-|-------------|

PM    --| ---------------------|
e|-----------------------------------|-----------------|
B|-----------------------------------|-----------------|
G|-----------------------------------|-3-3-2-2-0~--2~--|
D|-----------------------------------|-----------------|
A|-----------------------------------|-----------------|
E|---3p0-0-0-0-0-0-0-0-0-0-0-0-0-0-0-|---------------3-|

PM    --| ---------------------|
e|-----------------------------------|-------------|
B|-----------------------------------|-------------|
G|-----------------------------------|-3-3-2-2-0~--|
D|-----------------------------------|-------------| x2
A|-----------------------------------|-------------|
E|-(3)p0-0-0-0-0-0-0-0-0-0-0-0-0-0-0-|-------------|

PM    --| ---------------------|
e|-----------------------------------|-----------------|
B|-----------------------------------|-----------------|
G|-----------------------------------|-3-3-2-2-0~--2~--|
D|-----------------------------------|-----------------|
A|-----------------------------------|-----------------|
E|---3p0-0-0-0-0-0-0-0-0-0-0-0-0-0-0-|-----------------|


Pre-chorus:

e|-------------|
B|-------------|
G|---0---3-2~--|
D|-2---2-------| x5
A|-------------|
E|-------------|

e|-------------|
B|-------------|
G|---0---3-2---|
D|-2---2-------|
A|-----------5-|
E|-----------3-|


Chorus:

PM --|   --|    --|   --|   -|
e|------------------|-----------------------|
B|------------------|-----------------------|
G|------------------|-----------------------|
D|----10\7-----8\7--|-----------------------| x4
A|-----8\9-----6\5--|-----10\7-----8\7---5--|
E|-0-0-----0-0------|-0-0--8\9-0-0-6\5-0-3--|


Interlude:

PM   ----------------------------|
e|-----------------------------------|-------------|
B|-----------------------------------|-------------|
G|-----------------------------------|-------------|
D|-----------------------------------|-------------| x10
A|-----------------------------------|-------------|
E|-(3)p0-0-0-0-0-0-0-0-0-0-0-0-0-0-0-|-6---5---3---|
 End 10th time with two-string power chords.


Outro:

PM     --|    --|   --|   -|
e|------------------|-----------------------|
B|------------------|-----------------------|
G|------------------|-----------------------|
D|----10\7-----8\7--|-----------------------|
A|-----8\9-----6\5--|-----10\7-----8\7---5--|
E|---------0-0------|-0-0--8\9-0-0-6\5-0-3--|

PM --|   --|    --|   --|   -|
e|------------------|-----------------------|
B|------------------|-----------------------|
G|------------------|-----------------------|
D|----10\7-----8\7--|-----------------------| x2
A|-----8\9-----6\5--|-----10\7-----8\7---5--|
E|-0-0-----0-0------|-0-0--8\9-0-0-6\5-0-3--|

PM --|   --|    --|   --|    --|   --|
e|------------------|------------------|----------------------|
B|------------------|------------------|----------------------|
G|------------------|------------------|----------------------|
D|------------------|------------------|-------------------2~-|
A|-----10\7-----8\7-|-----10\9-----8\7-|----10\7-----8\7-5-2~-|
E|-0-0--8\9-0-0-6\5-|-0-0--8\7-0-0-6\5-|-0-0-8\9-0-0-6\5-3-0~-|



************************************

| (n) Ghost note
| p  Pull-off
| \  Slide down
| ~  Vibrato
| PM Palm mute

Find guitar tabs and chords

A B C D E F G H I J K L M N O P Q R S T U V W X Y Z #