Log in

One click and you are in

Login with Facebook Login with Google

Why sign up and log in

Guitar Tabs Explorer
Musikatha bass tabs for Sa biyaya mo

Bass tabs

Sa Biyaya Mo
Musikatha
Pagsambang Wagas


Standard Tuning
Key of F

Intro:
G|--------------------------------------------------------|
D|--------------------------------------------------------|
A|------56----6--------6-565656-------56-------------5-6--|
E|-1-56------6-6-1--56-----------1-56-----6/10\-1-356-----|


Verse:
(Aking Diyos dakilang manunubos...)
G|--------------------------------------|
D|--------------------------------------|  (x4)
A|--3---35--1----1---3---35--1---010----|
E|--------------1-1---------------------|


Refrain:
(Lahat ay kayang gawin...)
G|---------------------------------------|
D|---------------------------------------|
A|---3333333555555556666666666-56--------|
E|--------------------------------56-----|

Chorus:
(Sa biyaya mo titindig ako...)
G|---------------------------------------------------------|
D|---------------------------------------------------------|
A|--8---5-6---6-5----51---1-1--8---5-6---6-5----51--0101---|
E|------------------5----1-1-------------------5-----------|


Intro

Verse

Refrain

Chorus x2


Instrumental and Bridge:
(sa biyaya Mo ay titindig ako...)
G|-----------------------------------------------------------------|
D|-----------------------------------------------------------------| (x4)
A|--------3-5-6-53-11-01-01--1-10-------3-5-6-53-11-01-01-01010----|
E|-1--356-------------------1-1--3--356----------------------------|


Refrain II:
G|------------------------------------------|
D|------------------------------------------|
A|---3---35---56-------3---35---56---56-----|
E|--------------------------------------56--|


Refrain 2x

Chorus x2

Intro

Almost there ...

Sign in to get your own page with links to favourite songs and more. You are just one click away...

Login with Facebook Login with Google