I Know Him So Well by Musical Chess

I Know Him So Well bass tab by Musical Chess

Bass tabs

*****************************************************************
*								*
*    Bass-	  					*
*	I Know Him So Well       			 	*
*	From the musical Chess				 	*
*	Copyright 1984						*
*	Music by: Tim Rice, Benny Andersson and Björn Ulvaeus	*
*								*
*****************************************************************

Transcribed by Mark Timmermans
http://www.mytholic.nl



chorus:
G------|-----|-----|-----|-----|---------------------------------------------
D------|-----|-----|-----|-----|---------------------------------------------
A------|-----|-----|-----|-----|-----------------8--8--8---8----------------
E---6--|--6--|--6--|--6--|-6-5-|---3----0----1-/-----------------5-6---------



verse:
G------------------------------------|-----------------------
D------------------------------------|-------5---3---1-------
A------------------------------------|-----5-----------------
E-----6----6-8-----8-10-------8-6-5--|--3--------------------



G---------------|--------------------------------------------
D--3----1---0---|--------------------------------------------
A---------------|-3----1-------------------------------------
E---------------|----------1---------------------------------



Bridge:
G-----|-----|-----|-----|-----|-------|---------|---------------------------
D-----|-----|-----|-----|-----|-------|---------|---------------------------
A-----|-----|-----|-----|-----|-------|--3---1--|---------------------------
E--6--|--6--|--6--|--6--|--0--|-3---1-|---------|-5-3-1---------------------



chorus:
G------|-----|-----|-----|-----|---------------------------------------------
D------|-----|-----|-----|-----|---------------------------------------------
A------|-----|-----|-----|-----|-----------------8--8--8---8----------------
E---6--|--6--|--6--|--6--|-6-5-|---3----0----1-/-----------------5-6---------

Find guitar tabs and chords

A B C D E F G H I J K L M N O P Q R S T U V W X Y Z #