Log in

One click and you are in

Login with Facebook Login with Google

Why sign up and log in

Guitar Tabs Explorer
Mushroomhead bass tabs for Solitary unraveling

Solitary Unraveling bass tab by Mushroomhead

Mushroomhead bass tabs for Solitary unraveling

Bass tabs

adammaske@comcast.net

note: if you have any problems with the tabs dont bitch at me bitch at my stupidity.

^=hammer
 Verse:
g |------------------|
d |------------------|
a |------------------|
e |0-1--4-1-0-1------|

 Chorus:
g |---------------------------|
d |---------------------------|
a |---------------------------|
e |0-1--0-3--0-1--0-3--0-1-1-3|
               ^

After 2nd chorus:
g |----------------|
d |----------------|
a |4-2-------------|
e |----3-4-5--(5-4)|

The order

intro

verse

chorus

verse

chorus
part after 2nd chorus

chorus

Almost there ...

Sign in to get your own page with links to favourite songs and more. You are just one click away...

Login with Facebook Login with Google