Log in

One click and you are in

Login with Facebook Login with Google

Why sign up and log in

Guitar Tabs Explorer
Mushroomhead chords for Simpleton

Guitar chords

Title: Simpleton

This song is really easy, simpleton suits it well, took me like 3 secs to
tab.
The first part to song, is played differently each time, so listen to song
for a feel of the
rythm.
Tuning is:

CGCFAD

-|-------------------------------------------|-
-|-------------------------------------------|-
-|-------------------------------------------|-
-|--4---4--4--4---4--4--4--4----/7r---|-
-|--4---4--4--4---4--4--4--4----/7r---|-
-|--4---4--4--4---4--4--4--4----/7r---|-
this is played for the whole song till the end just different variations

-|------------------------------------------------------------------|-
-|------------------------------------------------------------------|-
-|------------------------------------------------------------------|-
-|--11r--/12r----11r--/12r-----16r--/17r---16r--/17r---|-
-|--11r--/12r----11r--/12r-----16r--/17r---16r--/17r---|-
-|--11r--/12r----11r--/12r-----16r--/17r---16r--/17r---|-
the end part

~Fin~

_________________________________________________________________

Other versions of Simpleton

SimpletonTabs

Almost there ...

Sign in to get your own page with links to favourite songs and more. You are just one click away...

Login with Facebook Login with Google