Log in

One click and you are in

Login with Facebook Login with Google

Why sign up and log in

Guitar Tabs Explorer
Mushroomhead tabs for Kill tommorow

Guitar tabs

this is for a 6-string. MRH leads are a seven string

For a seven string tune down 1 whole step and drop-D tuning

X-palm mute
/-slide
P- pull off

[----------------------------------------------]
[----------------------------------------------]
[----------------------------------------------]
[----------------------------------------------]
[-12p--0---12p--0--12p--0--12p--12p--X---------]
[-12p--0---12p--0--12p--0--12p--12p X----------]
[----------------------------------------------]
[----------------------------------------------]
[----------------------------------------------]
[----------------------------------------------]
[-12p--0---12p--0--12p--0--12p--12p--X---------]
[-12p--0---12p--0--12p--0--12p--12p X----------]


[----------------------------------------------]
[----------------------------------------------]
[----------------------------------------------]
[----------------------------------------------]
[----------------------------------------------]
[--7//5//3//----3//5//7//----------------------]



[----------------------------------------------]
[----------------------------------------------]
[----------------------------------------------]
[----------------------------------------------]
[-12p--0---12p--0--12p--0--12p--12p--X---------]
[-12p--0---12p--0--12p--0--12p--12p X----------]

[----------------------------------------------]
[----------------------------------------------]
[----------------------------------------------]
[----------------------------------------------]
[-12p--0---12p--0--12p--0--12p--12p--X---------]
[-12p--0---12p--0--12p--0--12p--12p X----------]


[----------------------------------------------]
[----------------------------------------------]
[----------------------------------------------]
[----------------------------------------------]
[----------------------------------------------]
[--7//5//3//----3//5//7//----------------------]
this part is for When Jeffrey Nothing is singing


[----------------------------------------------]
[----------------------------------------------]
[----------------------------------------------]
[----------------------------------------------]
[---222222222222222222222----------------------]
[--2222222222222222222222----------------------]

[----------------------------------------------]
[----------------------------------------------]
[----------------------------------------------]
[----------------------------------------------]
[----------------------------------------------]
[--7//5//3//----3//5//7//----------------------]

[----------------------------------------------]
[----------------------------------------------]
[----------------------------------------------]
[----------------------------------------------]
[-----22x------22222x----22x-------------------]
[-----22x------22222x----22x-------------------]

[----------------------------------------------]
[----------------------------------------------]
[----------------------------------------------]
[----------------------------------------------]
[----------------------------------------------]
[--7//5//3//----3//5//7//----------------------]


[----------------------------------------------]
[----------------------------------------------]
[----------------------------------------------]
[----------------------------------------------]
[-----22x------22x----22x----------------------]
[-----22x-----222x----22x----------------------]


[----------------------------------------------]
[----------------------------------------------]
[----------------------------------------------]
[----------------------------------------------]
[----22///1-----222///1-----------------------]
[----22///1-----222///1-------------------]


[----------------------------------------------]
[----------------------------------------------]
[----------------------------------------------]
[----------------------------------------------]
[----------------------------------------------]
[--7//5//3//----3//5//7//----------------------]

[----------------------------------------------]
[----------------------------------------------]
[----------------------------------------------]
[----------------------------------------------]
[---222222222222222222222----------------------]
[--2222222222222222222222----------------------]

[----------------------------------------------]
[----------------------------------------------]
[----------------------------------------------]
[----------------------------------------------]
[----------------------------------------------]
[--7//5//3//----3//5//7//----------------------]


[----------------------------------------------]
[----------------------------------------------]
[----------------------------------------------]
[----------------------------------------------]
[-12p--0---12p--0--12p--0--12p--12p--X---------]
[-12p--0---12p--0--12p--0--12p--12p X----------]

[----------------------------------------------]
[----------------------------------------------]
[----------------------------------------------]
[----------------------------------------------]
[-12p--0---12p--0--12p--0--12p--12p--X---------]
[-12p--0---12p--0--12p--0--12p--12p X----------]

[----------------------------------------------]
[----------------------------------------------]
[----------------------------------------------]
[----------------------------------------------]
[---222222222222222222222----------------------]
[--2222222222222222222222----------------------]

[----------------------------------------------]
[----------------------------------------------]
[----------------------------------------------]
[----------------------------------------------]
[----------------------------------------------]
[--7//5//3//----3//5//7//~~--------------------]

Any questions,corrections or just talk
e-mail me at mikevfan93@yahoo.com

Almost there ...

Sign in to get your own page with links to favourite songs and more. You are just one click away...

Login with Facebook Login with Google