Log in

One click and you are in

Login with Facebook Login with Google

Why sign up and log in

Guitar Tabs Explorer
Mushroomhead tabs for Episode 29

Guitar tabs

Mushroomhead-Episode 29

Key:
/=Slide from last fret to the one indicated
x=mute string

|--13-----------------------|
|--17-----------------------|
|---------------------------|
|---------------------------| X4
|---------------------------|
|---------------------------|
(You should get a slight "warble". If not,
turn up the gain on your pedal/amp, or bend
and release the strings gradually.

|---------------------------|
|---------------------------|
|---------------------------|
|-----0--8-3--2----0--8-3---| X1
|-----0--8-3--2----0--8-3---|
|-----0--8-3--2----0--8-3---|

|--------------------------------|
|--------------------------------|
|--------------------------------|
|--3-2-00-3-2-00--3-0-0-0-3/5--3-| X1
|--3-2-00-3-2-00--3-0-0-0-3/5--3-|
|--3-2-00-3-2-00--3-0-0-0-3/5--3-|

|----------------------------------------|
|----------------------------------------|
|----------------------------------------|
|-3-2-00-3-2-00--0-0-0-0-0-0-0-0---------| X1
|-3-2-00-3-2-00--0-0-0-0-0-0-0-0---------|
|-3-2-00-3-2-00--0-0-0-0-0-0-0-0---------|


|------------------------|----------------------|
|------------------------|----------------------|
|------------------------|----------------------|
|3-2-00-3-2-0-6---00-00-0|3-2-00-3-2-06----0-0--| X1
|3-2-00-3-2-0-6-0-00-00-0|3-2-00-3-2-06-00-0-0-0|
|3-2-00-3-2-0-6-0-00-00-0|3-2-00-3-2-06-00-0-0-0|

|--------------------------|
|--------------------------|
|--------------------------|
|----00-3-2---6--00-------0| X1
|3-2-00-3-2-0-60-00-00-00-0|
|3-2-00-3-2-0-60-00-00-00-0|




|--------------------------|--------------------------|
|--------------------------|--------------------------|
|--------------------------|--------------------------|
|3-2-00-3-2-0-6---00-00-0--|----00-3-2---6--00-------0| X2
|3-2-00-3-2-0-6-0-00-00-0-0|3-2-00-3-2-0-60-00-00-00-0|
|3-2-00-3-2-0-6-0-00-00-0-0|3-2-00-3-2-0-60-00-00-00-0|

|--------------------------|
|--------------------------|
|--------------------------|
|3-2-00-3-2-0-6---00-00-0--| X1
|3-2-00-3-2-0-6-0-00-00-0-0|
|3-2-00-3-2-0-6-0-00-00-0-0|

|---------|----------|
|---------|----------|
|---------|----------|
|---8-3---|-----8-3--| X1
|0--8-3--2|-0---8-3-2|
|0--8-3--2|-0---8-3-2|

|----------------------|----------------------------|
|----------------------|----------------------------|
|----------------------|----------------------------|
|6----0--00---0-32----5|--6----0--00---0-32----5---0| X1
|6-00-00-00-000-32----5|--6-00-00-00-000-32----5---0|
|6-00-00-00-000-32----5|--6-00-00-00-000-32----5---0|


|---------------------------|
|---------------------------|
|---------------------------|
|----00-3-2-0-----00-00-0---| X5
|3-2-00-3-2-0-6-0-00-00-0-0x|
|3-2-00-3-2-0-6-0-00-00-0-0x|

Almost there ...

Sign in to get your own page with links to favourite songs and more. You are just one click away...

Login with Facebook Login with Google