Guitar Tabs Explorer
Kacey Musgraves guitar tabs for Miserable

Miserable tab


Be the first to rate

Miserable tab by Kacey Musgraves

Intro

Print
  • Capo on 3rd

Intro:
e|---------------------------------------------------------------------------|
B|-1-3-5----1----------------------------------------------------------------|
G|-------0-------------------------------------------------------------------|
D|----------2----------------------------------------------------------------|
A|-0-2-3---------------------------------------------------------------------|
E|-------0--1----------------------------------------------------------------|

e|-3---3----------------------------------------------------------------------|
B|-1---1----------------------------------------------------------------------|
G|-0---2----------------------------------------------------------------------|
D|-2---3----------------------------------------------------------------------|
A|-3---0----------------------------------------------------------------------|
E|-0---0----------------------------------------------------------------------|

Other versions of Miserable

- MiserableChords

Comment this song and these intro

Do you have corrections, comments on the intro, thoughts about the song or a message to the author? Write them below.