Log in

One click and you are in

Login with Facebook Login with Google

Why sign up and log in

Guitar Tabs Explorer
Kacey Musgraves bass tabs for Love is a wild thing

Love Is A Wild Thing bass tab by Kacey Musgraves

Kacey Musgraves bass tabs for Love is a wild thing

Bass tabs

Tuning: Standard (E A D G)


Key: G Minor
Intro: (0:00-0:16)

G|----------------|----------------|----------------|----------------|
D|----------------|----------------|----------------|----------------| x2
A|----------------|----------------|----------------|----------------|
E|----------------|----------------|----------------|----------------|
 1 & 2 & 3 & 4 & 1 & 2 & 3 & 4 & 1 & 2 & 3 & 4 & 1 & 2 & 3 & 4 &


Verse 1: (0:16-0:32)

G|----------------|----------------|----------------|----------------|
D|----------------|----------------|----------------|----------------| x2
A|----------------|----------------|----------------|----------------|
E|----------------|----------------|----------------|----------------|
 1 & 2 & 3 & 4 & 1 & 2 & 3 & 4 & 1 & 2 & 3 & 4 & 1 & 2 & 3 & 4 &


Pre-Chorus: (0:32-0:47)

G|----------------|----------------|----------------|----------------|
D|10--------------|--------------10|----------------|--------------8-|
A|----------------|----------------|8---------------|------------10--|
E|----------------|----------------|----------------|----------------|
 1 & 2 & 3 & 4 & 1 & 2 & 3 & 4 & 1 & 2 & 3 & 4 & 1 & 2 & 3 & 4 &

G|----------------|----------------|----------------|----------------|
D|10\-------------|----------------|----------------|----------------|
A|----------------|----------------|8\--------------|----------------|
E|----------------|----------------|----------------|1---------------|
 1 & 2 & 3 & 4 & 1 & 2 & 3 & 4 & 1 & 2 & 3 & 4 & 1 & 2 & 3 & 4 &


Chorus: (0:47-1:14)

G|----------------|----------------|----------------|----------------|
D|----------------|----------------|----------------|----------------|
A|10--------------|----------------|6---------------|----------------|
E|----------------|6---------------|----------------|----------------|
 1 & 2 & 3 & 4 & 1 & 2 & 3 & 4 & 1 & 2 & 3 & 4 & 1 & 2 & 3 & 4 &

G|----------------|----------------|----------------|----------------|
D|----------------|----------------|----------------|----------------|
A|10--------------|----------------|6---------------|------------8-10|
E|----------------|6---------------|----------------|----------------|
 1 & 2 & 3 & 4 & 1 & 2 & 3 & 4 & 1 & 2 & 3 & 4 & 1 & 2 & 3 & 4 &

G|----------------|----------------|----------------|----------------|
D|8---------------|10\-------------|----------------|----------------|
A|----------------|----------------|5---------------|6-------------5-|
E|----------------|----------------|----------------|----------------|
 1 & 2 & 3 & 4 & 1 & 2 & 3 & 4 & 1 & 2 & 3 & 4 & 1 & 2 & 3 & 4 &

G|----------------|----------------|
D|----------------|----------------|
A|3/--------------|6\--------------|
E|----------------|----------------|
 1 & 2 & 3 & 4 & 1 & 2 & 3 & 4 &


Post-Chorus: (1:14-1:23)

G|----------------|----------------|----------------|----------------|
D|----------------|----------------|----------------|----------------|
A|----------------|----------------|----------------|----------------|
E|----------------|----------------|----------------|----------------|
 1 & 2 & 3 & 4 & 1 & 2 & 3 & 4 & 1 & 2 & 3 & 4 & 1 & 2 & 3 & 4 &


Verse 2: (1:23-1:38)

G|----------------|----------------|----------------|----------------|
D|8-8---8-8-8---8-|8-8---8-8-8---8-|8-8---8-8-8---8-|8-8---8-8-8---8-|
A|----------------|----------------|----------------|----------------|
E|----------------|----------------|----------------|----------------|
 1 & 2 & 3 & 4 & 1 & 2 & 3 & 4 & 1 & 2 & 3 & 4 & 1 & 2 & 3 & 4 &

G|----------------|----------------|----------------|----------------|
D|8-8---8-8-8---8-|8-8---8-8-8---8-|8-8---8-8-8---8-|8-8---8-8-8---8-|
A|----------------|----------------|----------------|----------------|
E|----------------|----------------|----------------|----------------|
 1 & 2 & 3 & 4 & 1 & 2 & 3 & 4 & 1 & 2 & 3 & 4 & 1 & 2 & 3 & 4 &


Pre-Chorus: (1:38-1:54)

G|----------------|----------------|----------------|----------------|
D|1010--101010--10|1010--101010--10|----------------|------------8---|
A|----------------|----------------|8-8---8-8-8---8-|8-8---8-8-10--10|
E|----------------|----------------|----------------|----------------|
 1 & 2 & 3 & 4 & 1 & 2 & 3 & 4 & 1 & 2 & 3 & 4 & 1 & 2 & 3 & 4 &

G|----------------|----------------|----------------|----------------|
D|1010--101010--10|1010--101010--10|----------------|----------------|
A|----------------|----------------|8-8---8-8-8---8\|----------------|
E|----------------|----------------|----------------|1---------------|
 1 & 2 & 3 & 4 & 1 & 2 & 3 & 4 & 1 & 2 & 3 & 4 & 1 & 2 & 3 & 4 &


Chorus: (1:54-2:21)

G|----------------|----------------|----------------|----------------|
D|----------------|----------------|----------------|----------------|
A|----------------|----------------|6-6---6-6-6---6-|6-6---6-6-6-8-8\|
E|3-3---3-3-3---3-|6-6---6-6-6---6-|----------------|----------------|
 1 & 2 & 3 & 4 & 1 & 2 & 3 & 4 & 1 & 2 & 3 & 4 & 1 & 2 & 3 & 4 &

G|----------------|----------------|----------------|----------------|
D|----------------|----------------|----------------|----------------|
A|----------------|----------------|6-6---6-6-6---6-|6-6---6-6-6-8-10|
E|3-3---3-3-3---3-|6-6---6-6-6---6-|----------------|----------------|
 1 & 2 & 3 & 4 & 1 & 2 & 3 & 4 & 1 & 2 & 3 & 4 & 1 & 2 & 3 & 4 &

G|----------------|-----------------|----------------|----------------|
D|8-8---8-8-8---8-|1010--101010--10\|----------------|----------------|
A|----------------|-----------------|5-5---5-5-5---5-|6-6---6-6-6---5-|
E|----------------|-----------------|----------------|----------------|
 1 & 2 & 3 & 4 & 1 & 2 & 3 & 4 &  1 & 2 & 3 & 4 & 1 & 2 & 3 & 4 &

G|----------------|----------------|
D|----------------|----------------|
A|3-3---3-3-3---3/|6---------------|
E|----------------|----------------|
 1 & 2 & 3 & 4 & 1 & 2 & 3 & 4 &


Post-Chorus: (2:21-2:37)

G|----------------|----------------|----------------|----------------|
D|----------------|----------------|----------------|----------------|
A|----------------|----------------|6-6---6-6-6---6-|6-6---6-6-8-10-8|
E|3-3---3-3-1---1-|6-6---6-6-6---6-|----------------|----------------|
 1 & 2 & 3 & 4 & 1 & 2 & 3 & 4 & 1 & 2 & 3 & 4 & 1 & 2 & 3 & 4 &

G|----------------|----------------|----------------|----------------|
D|----------------|----------------|----------------|----------------|
A|1010--10108---8-|----------------|6-6---6-6-6---6-|6-6---6-6-6---6-|
E|----------------|6-6---6-6-6---6-|----------------|----------------|
 1 & 2 & 3 & 4 & 1 & 2 & 3 & 4 & 1 & 2 & 3 & 4 & 1 & 2 & 3 & 4 &


Bridge: (2:37-2:57)

G|----------------|----------------|----------------|----------------|
D|----------------|----------------|----------------|----------------|
A|6---------------|8---------------|5---------------|6-------------6/|
E|----------------|----------------|----------------|----------------|
 1 & 2 & 3 & 4 & 1 & 2 & 3 & 4 & 1 & 2 & 3 & 4 & 1 & 2 & 3 & 4 &

G|----------------|----------------|----------------|----------------|
D|----------------|----------------|----------------|----------------|
A|13--------------|15--------------|15--------------|----------------|
E|----------------|----------------|----------------|----------------|
 1 & 2 & 3 & 4 & 1 & 2 & 3 & 4 & 1 & 2 & 3 & 4 & 1 & 2 & 3 & 4 &

G|----------------|----------------|
D|----------------|----------------|
A|----------------|----------------|
E|8---------------|----------------|
 1 & 2 & 3 & 4 & 1 & 2 & 3 & 4 &


Chorus: (2:57-3:42)

G|----------------|----------------|----------------|----------------|
D|----------------|----------------|----------------|----------------|
A|----------------|----------------|6-6---6-6-6---6-|6-6---6-6-6-8-8-|
E|3-3---3-3-1---1-|6-6---6-6-6---6-|----------------|----------------|
 1 & 2 & 3 & 4 & 1 & 2 & 3 & 4 & 1 & 2 & 3 & 4 & 1 & 2 & 3 & 4 &

G|----------------|----------------|----------------|----------------|
D|----------------|----------------|----------------|----------------|
A|----------------|----------------|6-6---6-6-6---6-|6-6---6-6-8-8-8-|
E|3-3---3-3-1---1-|6-6---6-6-6---6-|----------------|----------------|
 1 & 2 & 3 & 4 & 1 & 2 & 3 & 4 & 1 & 2 & 3 & 4 & 1 & 2 & 3 & 4 &

G|----------------|----------------|----------------|----------------|
D|----------------|----------------|----------------|----------------|
A|----------------|----------------|6-6---6-6-6---6-|6-6---6-6-8---8-|
E|3-3---3-3-1---1-|6-6---6-6-6---6-|----------------|----------------|
 1 & 2 & 3 & 4 & 1 & 2 & 3 & 4 & 1 & 2 & 3 & 4 & 1 & 2 & 3 & 4 &

G|----------------|----------------|----------------|----------------|
D|----------------|----------------|----------------|----------------|
A|----------------|----------------|6-6---6-6-6---6-|6-6---6-6-6---6-|
E|3-3---3-3-1---1-|6-6---6-6-6---6-|----------------|----------------|
 1 & 2 & 3 & 4 & 1 & 2 & 3 & 4 & 1 & 2 & 3 & 4 & 1 & 2 & 3 & 4 &

G|----------------|----------------|----------------|----------------|
D|8-8---8-8-8---8-|1010--1010108\--|----------------|----------------|
A|----------------|----------------|----------------|6-6---6-6-6---6-|
E|----------------|----------------|3-3----3-3-3--3-|----------------|
 1 & 2 & 3 & 4 & 1 & 2 & 3 & 4 & 1 & 2 & 3 & 4 & 1 & 2 & 3 & 4 &

G|----------------|----------------|----------------|
D|----------------|----------------|----------------|
A|6-6---6-6-6-5-5-|3-3---3-3-3---3/|6---------------|
E|----------------|----------------|----------------|
 1 & 2 & 3 & 4 & 1 & 2 & 3 & 4 & 1 & 2 & 3 & 4 &


Outro: (3:42-4:06)

G|----------------|----------------|----------------|----------------|
D|----------------|----------------|----------------|----------------|
A|----------------|----------------|----------------|----------------|
E|6-6---6-6-6---6-|6-6---6-6-6---6-|6-6---6-6-6---6-|6-6---6-6-6---6\|
 1 & 2 & 3 & 4 & 1 & 2 & 3 & 4 & 1 & 2 & 3 & 4 & 1 & 2 & 3 & 4 &

G|----------------|----------------|----------------|----------------|
D|----------------|----------------|----------------|----------------|
A|----------------|----------------|6-6---6-6-6---6-|6-6---6-6-6---6-|
E|1-1---1-1-1---1-|1-1---1-1-1---1/|----------------|----------------|
 1 & 2 & 3 & 4 & 1 & 2 & 3 & 4 & 1 & 2 & 3 & 4 & 1 & 2 & 3 & 4 &

G|----------------|----------------|----------------|----------------|
D|----------------|----------------|----------------|----------------|
A|----------------|----------------|6---------------|----------------|
E|3-3---3-3-1---1/|6-6---6-6-6---6-|----------------|----------------|
 1 & 2 & 3 & 4 & 1 & 2 & 3 & 4 & 1 & 2 & 3 & 4 & 1 & 2 & 3 & 4 &


************************************

| /  Slide up
| \  Slide down

************************************

Almost there ...

Sign in to get your own page with links to favourite songs and more. You are just one click away...

Login with Facebook Login with Google