Guitar Tabs Explorer
Kacey Musgraves guitar tabs for Late to the party

Late To The Party tab


Be the first to rate

Late To The Party tab by Kacey Musgraves

Intro with lyrics

Print

The base notes pairs are strummed.   For the D chord diagramDD chord you should think 'C chord two frets up the neck'.
Don't try to finger the full Em chord diagramEmEm, just what is needed.  You'll need your pinky for the hammer-on, etc.  You
have to get the pacing/rythme by repeated listening to the recording.

The embellishments in the second version are not found in the 2x of the intro, but they are there in some
online recordings at some point during the song.  There are lots of things that can be done including
hammering on the B chord diagramBB string notes on the Am chord diagramAmAm and D chord diagramDD chords.  I think I hear that at some point too.


      G chord diagramGG           Em chord diagramEmEm              Am chord diagramAmAm             D chord diagramDD
E|------------------------------------------------------------|
B|----------------------------------------1------------3------|
G|---2h4-2-0---0----2h4-2-0---0---------2------------0--------|
D|-----------4--------------4--------2-------------4----------|
A|-2--------------2---------------0--------------5------------|
E|-3--------------0-------------------------------------------|

      G chord diagramGG           Em chord diagramEmEm              Am chord diagramAmAm             D chord diagramDD
E|------------------------------------------------------------|
B|---0---0-0---0----0---0-0---0------------1-----------3------|
G|---2h4-2-0-0-0----2h4-2-0-0-0---------2-----2------0------0-|
D|-----------4--------------4--------2-------2-----4-------4--|
A|-2--------------2---------------0---------0----5--------5---|
E|-3--------------0-------------------------------------------|


***********************************
| h   Hummer-on

Other versions of Late To The Party

- Late to the partyChords
- Late to the party (Ver. 2)Chords
- Late to the party ukuleleChords
- Late to the party (Ver. 2) - introTabs

Comment this song and these intro

Do you have corrections, comments on the intro, thoughts about the song or a message to the author? Write them below.