Log in

One click and you are in

Login with Facebook Login with Google

Why sign up and log in

Guitar Tabs Explorer
Kacey Musgraves guitar tabs for High horse

Guitar tabs

Tuning: Standard (E A D G B E)


Riff after "seen enough" / "giddy up"
e-------------|
B-------------|
G-------2-----|
D-----0---4---|
A---2---------|
E-------------|


And after "hiiIIIIiighh hoooOOOOooorse"

e-------------------|
B-----3-------------|
G---4---4-2---------|
D-----------0-2-4---|
A-------------------|
E-------------------|

Other versions of High Horse

High horseChords
High horse (Ver. 2)Chords

Almost there ...

Sign in to get your own page with links to favourite songs and more. You are just one click away...

Login with Facebook Login with Google