Log in

One click and you are in

Login with Facebook Login with Google

Why sign up and log in

Guitar Tabs Explorer
Muscadine Bloodline guitar tabs for Montgomery

Guitar tabs with lyrics

Tuning: Drop A chord diagramDbDb (A chord diagramDbDb A chord diagramAbAb A chord diagramDbDb A chord diagramGbGb A chord diagramBb majorBb A chord diagramEb MajorEb)


You can fool around with playing full three note bars vs single/power notes
You can do the final chorus tab for all of the choruses if you want it easier :)
Worked my tail off on this, enjoy!
Intro:

eb|-----------------------------|-----------------------------|
Bb|-----------------------------|-----------------------------|
Gb|-------6---------------------|-------6---------------------|
Db|---------7-0--------------6-7|---------7-0--------------7*-|
Ab|------------0-5\4-5-4-5/7----|------------0-5\4-5-4-5-7*---|
Db|-0-0-0-----------------------|-0-0-0-----------------------| x2
    PM--|                         PM--|


Verse 1:

   "Maybe if Montgomery      wasn't on     my way            back           home......."
eb|-------------------------|-------------------------|-------------------------|-------------------------|
Bb|-------------------------|-------------------------|-------------------------|-------------------------|
Gb|-------------------------|-------------------------|-------------------------|-------------------------|
Db|(7)----------------------|-------------------------|-------------------x-----|-------------------------|
Ab|-7--7-7--7-x--7----------|-7--7-7--7-7--11--11-11--|11-11--0--0-0--0-0-5-----|0--0-0--0-0---2--2-2--2-2|
Db|-7--7-7--7-6--7----------|-7--7-7--7-7--11--11-11--|11-11--0--0-0--0-0-x-----|0--0-0--0-0---2--2-2--2-2| x2

..."Wouldn't ever get the urge to put your name in a country song........."
eb|-------------------------|-------------------------|-------------------------|-------------------------|
Bb|-------------------------|-------------------------|-------------------------|-------------------------|
Gb|-------------------------|-------------------------|-------------------------|-------------------------|
Db|(9)----------------------|-------------------------|-------------------x-----|-------------------------|
Ab|-9--9-9--9-7--9----------|-9--9-9--9-9--11--11-11--|11-11--0--0-0--0-0-5-----|0--0-0--0-0---2--2-2--2-2|
Db|-9--9-9--9-7--9----------|-9--9-9--9-9--11--11-11--|11-11--0--0-0--0-0-x-----|0--0-0--0-0---2--2-2--2-2|

   "Soon as I see city lights, I know I'm getting close, no detour, no backroad, no other way to go"
eb|-------------------------|-------------------------|-------------------------|-------------------------|
Bb|-------------------------|-------------------------|-------------------------|-------------------------|
Gb|-------------------------|-------------------------|-------------------------|-------------------------|
Db|(9)----------------------|-------------------------|-------------------x-----|x-x-2--------------------|
Ab|-9--9-9--9-7--9----------|-9--9-9--9-9--11--11-11--|11-11--0--0-0--0-0-5-----|x-x-2--------------------|
Db|-9--9-9--9-7--9----------|-9--9-9--9-9--11--11-11--|11-11--0--0-0--0-0-x-----|x-x-2--------------------|


Chorus:

"So, I turn up the radio     Pedal down, left lane and I, light up a cigarette  anything to get me.."
eb|-------------------------|-------------------------|-------------------------|-------------------------|
Bb|-------------------------|-------------------------|-------------------------|-------------------------|
Gb|-------------------------|-------------------------|-------------------------|-------------------------|
Db|--11--11-11-11-11--------|--9--9-9--9-9------------|0--0-0--0-0---0--0-0--0-0|-------------------------|
Ab|--9---9--9--9--9---------|--9--9-9--9-9------------|0--0-0--0-0---0--0-0--0-0|-------------------------|
Db|--7---7--7--7--7---------|--7--7-7--7-7------------|0--0-0--0-0---0--0-0--0-0|-------------------------|

 "...ten miles of memories pulling me back to you (like they always do)"
eb|-------------------------|-------------------------|-------------------------|-------------------------|
Bb|-------------------------|-------------------------|-------------------------|-------------------------|
Gb|-------------------------|-------------------------|-------------------------|-------------------------|
Db|--11--11-11-11-11--------|--9--9-9--9-9------------|0--0-0--0-0---0--0-0--0-0|-------------------------|
Ab|--9---9--9--9--9---------|--9--9-9--9-9------------|0--0-0--0-0---0--0-0--0-0|-------------------------|
Db|--7---7--7--7--7---------|--7--7-7--7-7------------|0--0-0--0-0---0--0-0--0-0|-------------------------|

   "Countin' down the exits  And the reasons you don't want me      Get me th Mont-"
eb|-------------------------|-------------------------|-------------------------|
Bb|-------------------------|-------------------------|-------------------------|
Gb|-------------------------|-4--4-4--4-4-------------|7--7-7--7-7---7--6--6--7-|
Db|--8--8-8--8-8------------|-2--2-2--2-2-------------|7--7-7--7-7---7--7--9--7-|
Ab|--6--6-6--6-6------------|-2--2-2--2-2-------------|5--5-5--5-5---5--5--5--5-|
Db|--4--4-4--4-4------------|-2--2-2--2-2-------------|-------------------------|

(for the 'get me through mont-' part move your pinky while keeping your middle finger down on the 6th fret

"-gomery"
eb|-----------------------------|-----------------------------|
Bb|-----------------------------|-----------------------------|
Gb|-------6---------------------|-------6---------------------|
Db|-7-------7-0--------------6-7|---------7-0--------------7*-|
Ab|-7----------0-5\4-5-4-5/7----|------------0-5\4-5-4-5-7*---|
Db|-7-7-7-----------------------|-0-0-0-----------------------|
    PM--|                         PM--|


Verse 2:

  "Maybe if I didn't know you moved on, it wouldn't be so rough..."
eb|-------------------------|-------------------------|-------------------------|-------------------------|
Bb|-------------------------|-------------------------|-------------------------|-------------------------|
Gb|-------------------------|-------------------------|-------------------------|-------------------------|
Db|(7)----------------------|-------------------------|-------------------x---7*|-------------------------|
Ab|-7--7-7--7-x--7--7*-9*---|-7--7-7--7-7--11--11-11--|11-11--0--0-0--0-0-5-7*--|0--0-0--0-0---2--2-2--2-2|
Db|-7--7-7--7-6--7----------|-7--7-7--7-7--11--11-11--|11-11--0--0-0--0-0-x-----|0--0-0--0-0---2--2-2--2-2| x2


"..Can't fix our history, can't change what it was, If I could then I would make you fall back in love"
eb|-------------------------|-------------------------|-------------------------|-------------------------|
Bb|-------------------------|-------------------------|-------------------------|-------------------------|
Gb|-------------------------|-------------------------|-------------------------|-------------------------|
Db|(9)----------------------|-------------------------|-------------------x-----|-x---2---2---2---2-------|
Ab|-9--9-9--9-7--9--7*-9*---|-9--9-9--9-9--11--11-11--|11-11--0--0-0--0-0-5-----|-x---2---2---2---2-------|
Db|-9--9-9--9-7--9----------|-9--9-9--9-9--11--11-11--|11-11--0--0-0--0-0-x-----|-x---2---2---2---2-------|


Chorus:

"So, I turn up the radio     Pedal down, left lane and I, light up a cigarette  anything to get me.."
eb|-------------------------|-------------------------|-------------------------|-------------------------|
Bb|-------------------------|-------------------------|-------------------------|-------------------------|
Gb|-------------------------|-------------------------|-------------------------|-------------------------|
Db|--11--11-11-11-11--------|--9--9-9--9-9------------|0--0-0--0-0---0--0-0--0-0|-------------------------|
Ab|--9---9--9--9--9---------|--9--9-9--9-9------------|0--0-0--0-0---0--0-0--0-0|-------------------------|
Db|--7---7--7--7--7---------|--7--7-7--7-7------------|0--0-0--0-0---0--0-0--0-0|-------------------------|

 "...ten miles of memories pulling me back to you (like they always do)"
eb|-------------------------|-------------------------|-------------------------|-------------------------|
Bb|-------------------------|-------------------------|-------------------------|-------------------------|
Gb|-------------------------|-------------------------|-------------------------|-------------------------|
Db|--11--11-11-11-11--------|--9--9-9--9-9------------|0--0-0--0-0---0--0-0--0-0|-------------------------|
Ab|--9---9--9--9--9---------|--9--9-9--9-9------------|0--0-0--0-0---0--0-0--0-0|-------------------------|
Db|--7---7--7--7--7---------|--7--7-7--7-7------------|0--0-0--0-0---0--0-0--0-0|-------------------------|

   "Countin' down the exits  And the reasons you don't want me      Get me th Mont-"
eb|-------------------------|-------------------------|-------------------------|
Bb|-------------------------|-------------------------|-------------------------|
Gb|-------------------------|-4--4-4--4-4-------------|7--7-7--7-7---7--6--6--7-|
Db|--8--8-8--8-8------------|-2--2-2--2-2-------------|7--7-7--7-7---7--7--9--7-|
Ab|--6--6-6--6-6------------|-2--2-2--2-2-------------|5--5-5--5-5---5--5--5--5-|
Db|--4--4-4--4-4------------|-2--2-2--2-2-------------|-------------------------|


Solo:

eb|-------------------------|
Bb|-------------------------|
Gb|-------------------------|
Db|-12---11t---11t--11t--11t|
Ab|-12--12t--12t--12t--12t--|
Db|-12-----12----12---12----| x4

Use a tapping pattern with the 4th and fifth strings. Not quite a pull off


Bridge:

"So, I turn up the radio     Pedal down, left lane and I, light up a cigarette  anything to get me.."
eb|-------------------------|-------------------------|--0----------------------|-------------------------|
Bb|-------------------------|-------------------------|--3----------------------|-------------------------|
Gb|-------------------------|-------------------------|--2----------------------|-------------------------|
Db|------9------------------|-------------------x-----|--0----------------------|-------------------------|
Ab|------9------------------|-------------------5-----|-(3)---------------------|-------------------------|
Db|------9------------------|-------------------x-----|--0----------------------|-------------------------|

 "...ten miles of memories pulling me back to youuuuuuuuuuuuuuuuu"
eb|-------------------------|-------------------------|-------------------------|
Bb|-------------------------|-------------------------|-------------------------|
Gb|-------------------------|-----------------4-4-4-4-|-------------------------|
Db|--11--11-11-11-11-11-11--|--11-11-11-11----2-2-2-2-|-------------------------|
Ab|--9---9--9--9--9--9--9---|--9--9--9--9-----2-2-2-2-|-------------------------|
Db|--7---7--7--7--7--7--7---|--7--7--7--7-----2-2-2-2-|-------------------------|


Chorus:

"So, I *pause* turn up the radio     Pedal down, left lane and I, light up a cigarette  anything to get me.."
eb|-------------------------|-------------------------|-------------------------|-------------------------|
Bb|-------------------------|-------------------------|-------------------------|-------------------------|
Gb|-------------------------|-------------------------|-------------------------|-------------------------|
Db|------7------7-7-7-7-7---|--7--7-7--7-7------------|0--0-0--0-0---0--0-0--0-0|-------------------------|
Ab|------7------7-7-7-7-7---|--7--7-7--7-7------------|0--0-0--0-0---0--0-0--0-0|-------------------------|
Db|------7------7-7-7-7-7---|--7--7-7--7-7------------|0--0-0--0-0---0--0-0--0-0|-------------------------|

 "...ten miles of memories pulling me back to you (like they always do)"
eb|-------------------------|-------------------------|-------------------------|-------------------------|
Bb|-------------------------|-------------------------|-------------------------|-------------------------|
Gb|-------------------------|-------------------------|-------------------------|-------------------------|
Db|--11--11-11-11-11--------|--9--9-9--9-9------------|0--0-0--0-0---0--0-0--0-0|-------------------------|
Ab|--9---9--9--9--9---------|--9--9-9--9-9------------|0--0-0--0-0---0--0-0--0-0|-------------------------|
Db|--7---7--7--7--7---------|--7--7-7--7-7------------|0--0-0--0-0---0--0-0--0-0|-------------------------|

   "Countin' down the exits  And the reasons you don't want me      Yeah Im..."
eb|-------------------------|-------------------------|-------------------------|
Bb|-------------------------|-------------------------|-------------------------|
Gb|-------------------------|-4--4-4--4-4-------------|7--7-7--7-7---7--7--7--7-|
Db|--8--8-8--8-8------------|-2--2-2--2-2-------------|7--7-7--7-7---7--7--7--7-|
Ab|--6--6-6--6-6------------|-2--2-2--2-2-------------|5--5-5--5-5---5--5--5--5-|
Db|--4--4-4--4-4------------|-2--2-2--2-2-------------|-------------------------|

"...countin down the exits til that road to you's behind me      Get me th Mont-"
eb|-------------------------|-------------------------|-------------------------|
Bb|-------------------------|-------------------------|-------------------------|
Gb|-------------------------|-4--4-4--4-4-------------|7--7-7--7-7---7--6--6--7-|
Db|--8--8-8--8-8------------|-2--2-2--2-2-------------|7--7-7--7-7---7--7--9--7-|
Ab|--6--6-6--6-6------------|-2--2-2--2-2-------------|5--5-5--5-5---5--5--5--5-|
Db|--4--4-4--4-4------------|-2--2-2--2-2-------------|-------------------------|


Outro:

"-gomery"                          "Get me through Montgomer..
eb|-----------------------------|-----------------------------|
Bb|-----------------------------|-----------------------------|
Gb|-------6---------------------|-------6---------------------|
Db|-7-------7-0--------------6-7|---------7-0--------------7*-|
Ab|-7----------0-5\4-5-4-5/7----|------------0-5\4-5-4-5-7*---|
Db|-7-7-7-----------------------|-0-0-0-----------------------|
    PM--|                         PM--|

"..eryyyy...."                            "yeah"
eb|-----------------------------|-----------------------------|
Bb|-----------------------------|-----------------------------|
Gb|-------6---------------------|-------6---------------------|
Db|-7-------7-0--------------6-7|---------7-0--------------7*-|
Ab|-7----------0-5\4-5-4-5/7----|------------0-5\4-5-4-5-7*---|
Db|-7-7-7-----------------------|-0-0-0-----------------------|
    PM--|                         PM--|


   "Maybe if Montgomery      wasn't on     my way back        home......."
eb|-------------------------|-------------------------|-------0-----------------|
Bb|-------------------------|-------------------------|-------0-----------------|
Gb|-------------------------|-------------------------|-------0-----------------|
Db|(7)----------------------|-------------------------|-------0-----------------|
Ab|-7--7-7--7-x--7----------|-7--7-7--7-7--11--11-11--|11-11--0-----------------|
Db|-7--7-7--7-6--7----------|-7--7-7--7-7--11--11-11--|11-11--0-----------------|
    PM------------------------------------------------------| Let Ring


************************************
| *   Harmonic
| x   Dead note
| (n) Ghost note
| h   Hammer-on
| p   Pull-off
| r   Release
| t   Tapping
| /   Slide up
| \   Slide down
| ~   Vibrato
| s   Slap
| PM  Palm mute

************************************

Other versions of Montgomery

MontgomeryChords

Almost there ...

Sign in to get your own page with links to favourite songs and more. You are just one click away...

Login with Facebook Login with Google