Guitar Tabs Explorer
Róisín Murphy bass tabs for Body language

Body Language bass tab


Be the first to rate


Bassm99Author: Bassm99

Body Language bass tab by Róisín Murphy

`Body Language` from the album `Overpowered` (2007). Written by Róisín Murphy/Andy Cato.

Bass tabs

Print
  • Tuning: Standard tuning
  • Difficulty: Novice

Tabbed by: bassm99
E-mail: alanmatthews1966@yahoo.co.uk

Tuning: E, A, D, G

Bass Starts: 0:53

Intro: (No Bass)

Verse: (No Bass)

Chorus: (Starts 0:53/Play 8 Times)

G|--------6-------------------------------------------------------------------|
D|----------------------------------------------------------------------------|
A|-----4-----6--9--6-----------6--6-------------------------------------------|
E|--6-----------------9--9--6-------------------------------------------------|

Bass Stops: (1:23)

Intro + Verse: (No Bass)

Repeat Chorus: (Starts 2:02)

Bass Stops (2:32)

Intro + Verse; (No Bass)

Bridge: (Starts 2:55/Play 4 Times)

G|--------6-------------------------------------------------------------------|
D|----------------------------------------------------------------------------|
A|-----4-----6--9--6-----------6--6-------------------------------------------|
E|--6-----------------9--9--6-------------------------------------------------|

Repeat Chorus: (Play 11 Times)

Chorus End: (Play Once)

G|--------6-------------------------------------------------------------------|
D|----------------------------------------------------------------------------|
A|-----4-----6--9--6----------------------------------------------------------|
E|--6-----------------9-------------------------------------------------------|

Bass Stops: (3:54)

Repeat Chorus: (Starts 3:56/Play 11 Times/Fades Out)

Comment this song and these bass tabs

Do you have corrections, comments on the bass tabs, thoughts about the song or a message to the author? Write them below.