GuitarTabsExplorer icon
GuitarTabsExplorer icon

Log in

Songbook

  • Log in to add and see bookmarks

Last visited songs

  • No songs visited yet...
Carry Me Home by The Murmurs

Tabs

"Carry Me Home" by The Murmurs
Transcribed by Jonathan Gilana
March 16, 1995

All guitars with capo on 2nd fret

Gtr. 1 (12-string)

e--------2-------------2------------2---------------------------
B------------3------------3------------3----------3-------------
G----2--------------2------------2-----------------------0h2----
D-0--------------0------------0--------------0------------------
A---------------------------------------------------------------
E---------------------------------------------------------------

h = hammer-on

(Gtr. 1 plays this ^ during the verses except when there are chords played)
Gtr. 2 (6-string)

Riff 1:
e---------------------------------------
B---3--2--0-----------------------------
G------------2--0--2----0---------------
D----------------------------4--0-------

Riff 2:
e---------------------------
B---3--2--0-----------------
G------------2--------------

Riff 3:
e------------0--------------
B---3--2--3-----3--2--0-----

Riff 4:
e---0-----0----------------
B------2-----2-------------

Riff 5:
e------12---------
B-----------------


Verse 1:
(Riff 1)
    Sun wakes ...

I think I'm ...

I wanna go ...
            (Riff 2)
I feel much ...

Chord diagramC majorC
The funny ...
  Chord diagramG+G           (Riff 2)
You look a lot like ...
                      (Riff 2)   Chord diagramC majorC Chord diagramG+G Chord diagramA augmentedA
Isn't it strange how ...
Verse 2:

I shiver ...
          (Riff 2)
I waste too ...
                  (Riff 2)
My struggle is my ...

   Chord diagramC majorC
I'm looking ...
   Chord diagramG+G        (Riff 2)
my simple sense ...
                   Chord diagramC majorC Chord diagramG+G Chord diagramA augmentedA
I need someone to ....


Chorus:
*A         *G
(Oh la la la laa oh ...
Days    -   go    -    by

  Chord diagramD MajorD                     Chord diagramA augmentedA
I still wanna know what it's ...

*A                        *G
(I've been around the world, seen ....
been to a lot of places)
Days       -        go       -         by

  Chord diagramD MajorD                     Chord diagramA augmentedA  (Riff 4)
I still wanna know what ...


Verse 3:
                    (Riff 2)
Tamed by fear and numbed ...

My routine life is ...

 Chord diagramC majorC
Another ...
 Chord diagramG+G
Another thought ...
                  Chord diagramC majorC Chord diagramG+G Chord diagramA augmentedA (Riff 3)
I need someone to ...


Bridge:

Gtr. 1
e---5-5-5-5-5---5-5-5-5-5---
B---6-6-6-6-6---6-6-6-6-6---
G---7-7-7-7-7---7-7-7-7-7---

Gtr. 2
 Chord diagramDmDm
Carry me home, ...

Gtr.1
e---7-7-7-7-7---7-7-7-7-7---
B---8-8-8-8-8---8-8-8-8-8---
G---9-9-9-9-9---9-9-9-9-9---

Gtr. 2
 Chord diagramDmDm
Carry me home, ...

Gtr.1
e---5-5-5-5-5---5-5-5-5-5---
B---6-6-6-6-6---6-6-6-6-6---
G---7-7-7-7-7---7-7-7-7-7---

Gtr. 2
 Chord diagramDmDm
Carry me home, ...

 Chord diagramA augmentedA
Ho     -    me

(Repeat bridge)


*Chorus (instead of "Oh la la..." sing "I've been around...")
 Chord diagramD MajorD                      Chord diagramA augmentedA  (Riff 5)
I still wanna know ....


Verse:

(Riff 1)
    I wanna go back to bed I ...

I wanna go back to bed I ...
                     Chord diagramD MajorD (Gtr. 1 let ring)
I wanna go back to bed ...


Special Chords:

   *A              *G
    OO              OO
  EADGBe            EADGBe
  *IIIII - 5th fret      *IIIII - 3rd fret
  III*II            III*II
  I**III            I**III

  O - open string


[email protected]

[ Privacy | About us ]

Welcome to the guitar community

Why join and log in?
- Get songbook with favourite songs
- Get custom made front page
- Submit chords and tabs
- Submit guitar-cover videos
- Get a lot of thumbs up for your work

Songbook

Last visited songs

Site
Home
Search
Community
Submit chords

Video

No video for this page. Check out how you can submit guitar-cover videos here

Search tabs and chords

Browse by artist

A B C D E F G H I J K L M N O P Q R S T U V W X Y Z #


Menu

Search

Video

Bookmark

Login