Log in

One click and you are in

Login with Facebook Login with Google

Why sign up and log in

Guitar Tabs Explorer
Murderdolls tabs for White wedding

Guitar tabs

Album: Beyond The Valley Of... Special Edition
Tabbed By - The Root Of All Evil


Intro:
|---------------|
|---------------|
|-4---4---4---4-|
|-4---4---4---4-|
|-2---2---2---2-|
|---------------|
Intro Lead:
|-2-----2-------|-2-----2---5--4|
|--3---3-3--5--3|--3---3-3------|
|---4-4---------|---4-4---------|
|----4----------|----4----------|
|---------------|---------------|
|---------------|---------------|


Verse:
|-----------------------------------------------|
|-----------------------------------------------|
|4-4-4-4-4-4-4-4-4-4-4-4-4-4-4-4-2-2-2-2-2-2-2-2|
|4-4-4-4-4-4-4-4-4-4-4-4-4-4-4-4-2-2-2-2-2-2-2-2|
|2-2-2-2-2-2-2-2-2-2-2-2-2-2-2-2-0-0-0-0-0-0-0-0|
|-----------------------------------------------|
|con't:
|----------------|
|----------------|
|----------------|
|2-2-2-2-2-2-2-2-|
|2-2-2-2-2-2-2-2-|
|0-0-0-0-0-0-0-0-|
pm----------------------------------------------]

Chorus:
|---------------------------------------|
|---------------------------------------|
|-2-----4-4-4-4-4-4-4-4-4-4-4-4-4-4-4-4-|
|-2--2--4-4-4-4-4-4-4-4-4-4-4-4-4-4-4-4-|
|-0--2--2-2-2-2-2-2-2-2-2-2-2-2-2-2-2-2-|
|----0----------------------------------|
|con't:
|---------------------------------------|
|---------------------------------------|
|-2--2--4-4-4-4-4-4-4-4-4-4-4-4-4-4-4-4-|
|-2--0--4-4-4-4-4-4-4-4-4-4-4-4-4-4-4-4-|
|-0-----2-2-2-2-2-2-2-2-2-2-2-2-2-2-2-2-|
|---------------------------------------|
|con't:
|---------------------------------------|
|---------------------------------------|
|-2-----4-4-4-4-4-4-4-4-4-4-4-4-4-4-4-4-|
|-2--2--4-4-4-4-4-4-4-4-4-4-4-4-4-4-4-4-|
|-0--2--2-2-2-2-2-2-2-2-2-2-2-2-2-2-2-2-|
|----0----------------------------------|


Solo:
|-2-----2-------|-2-----2---5--4|
|--3---3-3--5--3|--3---3-3------|
|---4-4---------|---4-4---------|
|----4----------|----4----------|
|---------------|---------------|
|---------------|---------------|
|Con't:                _____ Then:
|-2-----2-------|    /     ||-2-----2---5--4|
|--3---3-3------|   /      ||--3---3-3------|
|---4-4---------|  /  _____||---4-4---------|
|----4----------|  /       ||----4----------|
|---------------| /        ||---------------|
|---------------|/    \_____||---------------|


Bridge:
Play 1st part of the chorus + intro.


Outro:
|------------------------------------|
|------------------------------------|
|-4-4-4-4-4-4-4-4-4-4-4-4-4-4-4-4-4-4|
|-4-4-4-4-4-4-4-4-4-4-4-4-4-4-4-4-4-4|
|-2-2-2-2-2-2-2-2-2-2-2-2-2-2-2-2-2-2|
|------------------------------------|
pm-------------------------------]
ⓘ Guitar tab for 'White Wedding' by Murderdolls, a punk rock band formed in 2002 from Hollywood, USA. They are no longer active.

Other versions of White Wedding

White wedding (Ver. 2)Tabs

Almost there ...

Sign in to get your own page with links to favourite songs and more. You are just one click away...

Login with Facebook Login with Google