Log in

One click and you are in

Login with Facebook Login with Google

Why sign up and log in

Guitar Tabs Explorer
Murderdolls bass tabs for Summertime suicide

Bass tabs

PRE-VERSE
F|------------------------------------------------------------------|
C|------------------------------------------------------------------|
G|------------------------------------------------------------------|
C|--3-3-3-3-3-3-3-3-3-3-3-3-3-3-3-3-3-3-3-3-3-3-3-3-3-3-3-3-3-3-3-3--|
VERSE 1
F|------------------------------------------------------------------|
C|------------------------------------------------------------------|
G|------------------------------------------------------------------|
C|--3-3-3-3-3-3-3-3-3-3-3-3-3-3-3-3-0-0-0-0-0-0-0-0-0-0-0-0-0-0-0-0-|


F|------------------------------------------------------------------|
C|------------------------------------------------------------------|
G|--1-1-1-1-1-1-1-1-3-3-3-3-3-3-3-3---------------------------3---3-|
C|----------------------------------0-0-0-0-0-0-0-0-0-0-0-0-0-------|


F|------------------------------------------------------------------|
C|------------------------------------------------------------------|
G|------------------------------------------------------------------|
C|-3-3-3-3-3-3-3-3-3-3-3-3-3-3-3-3-0-0-0-0-0-0-0-0-0-0-0-0-0-0-0-0-0|

F|------------------------------------------------------------------|
C|------------------------------------------------------------------|
G|--1-1-1-1-1-1-1-1-3-3-3-3-3-3-3-3-------------------------5---3---|
C|----------------------------------0-0-0-0-0-0-0-0-0-0-0-0---------|


PRE-CHORUS
F|------------------------------------------------------------------|
C|------------------------------------------------------------------|
G|--1---1---1---1---3---3---3---3---3/5-5-5-5-5-5-5-5-5-5-5-5-5-5-5-|
C|------------------------------------------------------------------|

F|----------------------------------|
C|----------------------------------|
G|--1---1---1---1---3---------------|
C|----------------------------------|

CHORUS

F|------------------------------------------------------------------|
C|------------------------------------------------------------------|
G|------------------3---3---3---3---5---5---5-3---1-----1---1---1---|
C|--3---3---3---3---------------------------------------------------|

F|------------------------------------------------------------------|
C|------------------------------------------------------------------|
G|------------------3---3---3---3---5---5---5-3---1-----1---1---1---|
C|--3---3---3---3---------------------------------------------------|

F|------------------------------------------------------------------|
C|------------------------------------------------------------------|
G|------------------3-3-------------5---5---5-3---1-----1---1---1---|
C|--3-3-------------------------------------------------------------|

F|-------------------------------------------------------------------|
C|-------------------------------------------------------------------|
G|------------------3---3---3---3---3/5-5-5-5-5-5-5-5-5-5-5-5-5-5-3--|
C|--3---3---3---3----------------------------------------------------|

F|----------------------------------|
C|----------------------------------|
G|---/5-5-5-5-5-5-5-3---------------|
C|----------------------------------|


PRE-VERSE

F|------------------------------------------------------------------|
C|------------------------------------------------------------------|
G|------------------------------------------------------------3---3-|
C|--3-3-3-3-3-3-3-3-3-3-3-3-3-3-3-3-3-3-3-3-3-3-3-3-3-3-3-3-3-------|


VERSE 2

F|------------------------------------------------------------------|
C|------------------------------------------------------------------|
G|------------------------------------------------------------------|
C|--3-3-3-3-3-3-3-3-3-3-3-3-3-3-3-3-0-0-0-0-0-0-0-0-0-0-0-0-0-0-0-0-|

F|------------------------------------------------------------------|
C|------------------------------------------------------------------|
G|--1-1-1-1-1-1-1-1-3-3-3-3-3-3-3-3---------------------------3---3-|
C|----------------------------------0-0-0-0-0-0-0-0-0-0-0-0-0-------|

F|------------------------------------------------------------------|
C|------------------------------------------------------------------|
G|------------------------------------------------------------------|
C|--3-3-3-3-3-3-3-3-3-3-3-3-3-3-3-3-0-0-0-0-0-0-0-0-0-0-0-0-0-0-0-0-|

F|------------------------------------------------------------------|
C|------------------------------------------------------------------|
G|--1-1-1-1-1-1-1-1-3-3-3-3-3-3-3-3-------------------------5---3---|
C|----------------------------------0-0-0-0-0-0-0-0-0-0-0-0---------|


PRE-CHORUS

F|------------------------------------------------------------------|
C|------------------------------------------------------------------|
G|--1---1---1---1---3---3---3---3---3/5-5-5-5-5-5-5-5-5-5-5-5-5-5-5-|
C|------------------------------------------------------------------|

F|----------------------------------|
C|----------------------------------|
G|--1---1---1---1---3---------------|
C|----------------------------------|


CHORUS

F|------------------------------------------------------------------|
C|------------------------------------------------------------------|
G|------------------3---3---3---3---5---5---5-3---1-----1---1---1---|
C|--3---3---3---3---------------------------------------------------|

F|------------------------------------------------------------------|
C|------------------------------------------------------------------|
G|------------------3---3---3---3---5---5---5-3---1-----1---1---1---|
C|--3---3---3---3---------------------------------------------------|

F|------------------------------------------------------------------|
C|------------------------------------------------------------------|
G|------------------3-3-------------5---5---5-3---1-----1---1---1---|
C|--3-3-------------------------------------------------------------|

F|-------------------------------------------------------------------|
C|-------------------------------------------------------------------|
G|------------------3---3---3---3---3/5-5-5-5-5-5-5-5-5-5-5-5-5-5-3--|
C|--3---3---3---3----------------------------------------------------|

F|----------------------------------|
C|----------------------------------|
G|---/5-5-5-5-5-5-5-3-3-3-3-3-3-3-3-|
C|----------------------------------|


SOLO

F|------------------------------------------------------------------|
C|------------------------------------------------------------------|
G|------------------3---3---3---3---5---5---5-3---1-----1---1---1---|
C|--3---3---3---3---------------------------------------------------|


F|------------------------------------------------------------------|
C|------------------------------------------------------------------|
G|------------------3---3---3---3---5---5---5-3---1-----1---1---1---|
C|--3---3---3---3---------------------------------------------------|

F|------------------------------------------------------------------|
C|------------------------------------------------------------------|
G|------------------3---3---3---3---5---5---5-3---1-----1---1---1---|
C|--3---3---3---3---------------------------------------------------|

F|-------------------------------------------------------------------|
C|-------------------------------------------------------------------|
G|------------------3---3---3---3---3/5-5-5-5-5-5-5-5-5-5-5-5-5-5-3--|
C|--3---3---3---3----------------------------------------------------|

F|----------------------------------|
C|----------------------------------|
G|---/5-5-5-5-5-5-5-3---------------|
C|----------------------------------|


CHORUS

F|------------------------------------------------------------------|
C|------------------------------------------------------------------|
G|------------------3---3---3---3---5---5---5-3---1-----1---1---1---|
C|--3---3---3---3---------------------------------------------------|

F|------------------------------------------------------------------|
C|------------------------------------------------------------------||
G|------------------3---3---3---3---5---5---5-3---1-----1---1---1---|
C|--3---3---3---3---------------------------------------------------|

F|------------------------------------------------------------------|
C|------------------------------------------------------------------|
G|------------------3-3-------------5---5---5-3---1-----1---1---1---|
C|--3-3-------------------------------------------------------------|


F|-------------------------------------------------------------------|
C|-------------------------------------------------------------------|
G|------------------3---3---3---3---3/5-5-5-5-5-5-5-5-5-5-5-5-5-5-3--|
C|--3---3---3---3----------------------------------------------------|

F|-------------------------------------------------------------------|
C|-------------------------------------------------------------------|
G|-----5-5-5-5-5-5-5-5-5-5-5-5-5-5-3--5-5-5-5-5-5-5-5-5-5-5-5-5-5-5-3|
C|-------------------------------------------------------------------|

F|------------------------------------------------------------------|
C|------------------------------------------------------------------|
G|----5-5-5-5-5-5-5-3-3-3-3-3-1-0-----------------------------------|
C|--------------------------------5-3-------------------------------|

Almost there ...

Sign in to get your own page with links to favourite songs and more. You are just one click away...

Login with Facebook Login with Google