Log in

One click and you are in

Login with Facebook Login with Google

Why sign up and log in

Guitar Tabs Explorer
Murderdolls tabs for Graverobbing u s a

Tabs

e|----------------------------------------
b|----------------------------------------
c|-----------------7-7-7-7-x-x-x-x-5-5-5-5
d|-5-5-5-5-x-x-x-x-7-7-7-7-x-x-x-x-5-5-5-5
a|-5-5-5-5-x-x-x-x-5-5-5-5-x-x-x-x-3-3-3-3
e|-3-3-3-3-x-x-x-x------------------------

(cont.)                                    x2
e|----------------------------------------
b|----------------------------------------
c|-x-x-x-x--------------------------------
d|-x-x-x-x-5-5-5-5-x-x-x-x----------------
a|-x-x-x-x-5-5-5-5-x-x-x-x----------------
e|---------3-3-3-3-x-x-x-x----------------

bridge
e|----------------------------------------
b|----------------------------------------
c|-----------------7-7-7-7-7-7-7-7--------
d|-5-5-5-5-5-5-5-5-5-5-5-5-5-5-5-5--------
a|-3-3-3-3-3-3-3-3-5-5-5-5-5-5-5-5--------
e|-3-3-3-3-3-3-3-3------------------------


(cont.)
e|----------------------------------------
b|----------------------------------------
c|-5-5-5-5-5-5-5-5------------------------
d|-5-5-5-5-5-5-5-5-5-5-5-5-5-5-5-5--------
a|-3-3-3-3-3-3-3-3-5-5-5-5-5-5-5-5--------
e|-----------------3-3-3-3-3-3-3-3--------

im not sure on the chorus or solo but im sure that is the verse and brigde

ⓘ Guitar tab for 'Graverobbing U S A' by Murderdolls, a punk rock band formed in 2002 from Hollywood, USA. They are no longer active.

Almost there ...

Sign in to get your own page with links to favourite songs and more. You are just one click away...

Login with Facebook Login with Google