Log in

One click and you are in

Login with Facebook Login with Google

Why sign up and log in

Guitar Tabs Explorer
Murderdolls bass tabs for Die my bride

Bass tabs

Title: Die My Bride
Album: Beyond The Valley Of The Murderdolls

Instrument: 4 String Bass

Tabbed by: Simon Flynn (Podgeisgod@hotmail.com)
Tuning: Standard (E A D G)

Hope it's correct!


Intro

G|----------------|----------------|----------------|----------------||
D|----------------|----------------|----------------|----------------||
A|----------------|----------------|----------------|----------------|| x2
E|0000000000000000|3333333322222222|0000000000000000|3333333322222222||


Bridge

G|----------------|----------------|----------------|----------------||
D|----------------|----------------|----------------|----------------||
A|----------------|----------------|----------------|----------------||
E|002300--002300--|002300--0023530-|--------3---2---|0-------3---2---||


Verse

G|----------------|----------------|----------------|----------------||
D|----------------|----------------|----------------|----------------||
A|----------------|----------------|----------------|----------------|| x2
E|0000000000000000|3333333322222222|0000000000000000|3333333322222222||

Bridge

G|----------------||
D|----------------||
A|22-1-111--------|| x4
E|--------55-4-444||


Chorus

G|----------------|----------------|----------------|----------------||
D|----------------|----------------|----------------|----------------||
A|----------------|----------------|----------------|----------------||
E|002300--002300--|002300--0023530-|002300--002300--|002300--0023530-||


Verse

G|----------------|----------------|----------------|----------------||
D|----------------|----------------|----------------|----------------||
A|----------------|----------------|----------------|----------------|| x2
E|0000000000000000|3333333322222222|0000000000000000|3333333322222222||


Bridge

G|----------------||
D|----------------||
A|22-1-111--------|| x4
E|--------55-4-444||


Chorus

G|----------------|----------------|----------------|----------------||
D|----------------|----------------|----------------|----------------||
A|----------------|----------------|----------------|----------------||
E|002300--002300--|002300--0023530-|002300--002300--|002300--0023530-||

G|----------------||
D|----------------||
A|2--211-1--------|| x4
E|--------55-544-4||

G|----------------|----------------|----------------|----------------||
D|----------------|----------------|----------------|----------------||
A|----------------|----------------|----------------|----------------||
E|002300--002300--|002300--0023530-|002300--002300--|002300--0023530-||

Almost there ...

Sign in to get your own page with links to favourite songs and more. You are just one click away...

Login with Facebook Login with Google