Log in

One click and you are in

Login with Facebook Login with Google

Why sign up and log in

Guitar Tabs Explorer
Mungo Jerry bass tabs for In the summertime

Bass tabs

In The Summertime by Mungo Jerry


Tuning : E A D G 	Time Signature: 4/4

 tempo 165    |    |    |    |    |    |
|--------------------------------|--------------------------------|
|--------------------------------|2-------------------------------|
|--------------------------------|----------------2---------------|
|--------------------------------|--------------------------------|

 |    |    |    |    |    |    |    |
|--------------------------------|--------------------------------|
|2-------------------------------|2-------------------------------|
|----------------2-------3-------|----------------2---------------|
|--------------------------------|--------------------------------|

 |    |    |    |    |    |    |    |
|--------------------------------|--------------------------------|
|2-----------------------2-------|----------------2---------------|
|----------------3---------------|0-------------------------------|
|--------------------------------|--------------------------------|

 |    |    |    |    |    |    |    |
|--------------------------------|--------------------------------|
|----------------4-------4-------|2-------------------------------|
|0-------0-----------------------|----------------2---------------|
|--------------------------------|--------------------------------|

 |    |    |    |    |    |    |    |
|--------------------------------|4-------------------------------|
|2-----------------------2-------|----------------4---------------|
|----------------2---------------|--------------------------------|
|--------------------------------|--------------------------------|

 |    |    |    |    |    |    |    |
|2-------------------------------|--------------------------------|
|----------------2---------------|2-------------------------------|
|--------------------------------|----------------2---------------|
|--------------------------------|--------------------------------|

 |    |    |    |    |    |    |    |
|--------------------------------|--------------------------------|
|2-------------------------------|2-------------------------------|
|----------------2-------3-------|----------------2---------------|
|--------------------------------|--------------------------------|

 |    |    |    |    |    |    |    |
|--------------------------------|--------------------------------|
|2-------------------------------|2-------------------------------|
|----------------2-------3-------|----------------2---------------|
|--------------------------------|--------------------------------|

 |    |    |    |    |    |    |    |
|--------------------------------|--------------------------------|
|2-------------------------------|----------------2---------------|
|----------------2-------3-------|0-------------------------------|
|--------------------------------|--------------------------------|

 |    |    |    |    |    |    |    |
|--------------------------------|--------------------------------|
|----------------4-------4-------|2-------------------------------|
|0-------------------------------|----------------2---------------|
|--------------------------------|--------------------------------|

 |    |    |    |    |    |    |    |
|--------------------------------|--------------------------------|
|2-----------------------2-------|----------------4---------------|
|----------------2---------------|2-------------------------------|
|--------------------------------|--------------------------------|

 |    |    |    |    |    |    |    |
|--------------------------------|--------------------------------|
|----------------2---------------|2-------------------------------|
|0-------------------------------|----------------2---------------|
|--------------------------------|-------- and so on -----------|

Other versions of In The Summertime

In the summertime (Ver. 2)Bass tabs

Almost there ...

Sign in to get your own page with links to favourite songs and more. You are just one click away...

Login with Facebook Login with Google