Log in

One click and you are in

Login with Facebook Login with Google

Why sign up and log in

Guitar Tabs Explorer
Mumford & Sons bass tabs for Hurt

Bass tabs with lyrics

Tuning: Standard (E A D G)

🎸 Intro:

G|-----------10--12--------------------10\7---12\7---------------------------|
D|--12-----------------12-12-12-12-------------------12-12-12----------------|
A|---------------------------------------------------------------------------|
E|---------------------------------------------------------------------------|
🎸 Verse 1:

G|-----------------------------------------------------------------------------------------------|
D|--------10\7---12\7-------------------------------10---12---------------10-12------------------|
A|-12--------------------12-12-12-12---------12-----------------12--12------------------12-12-12-|
E|-----------------------------------------------------------------------------------------------|
    I hurt myself today To see if I still feel I focus on the pain The only thing that's real


G|---------------------------------------------------------------------------------------------------|
D|-------10\7----12\7--------------10--12-------------------10\7--12\7--------------10---12----------|
A|----------------------12-12------------------12-12---------------------12 12-----------------------|
E|------------------------------------------------------------------------------------------------3-3|
   The needle tears a hole The old familiar sting Try to kill it all away But I remember everything

🎸 Chorus:

G|----------------------------------------------------------------------------|
D|--0h5-------0h3-------------------------0h5-----0h3---3/5-------------------|
A|-------------------0h3------3/5----3------------------------3----3/5-------0|
E|-------------------------------------------------------------------------3--|
  What have I become my sweetest friend everyone I know goes away in the end

G|-----------------------------------------------------------------------------------|
D|--------0h5----------0h3----------------------0h5-----0h3---3/5-----------------12-|
A|-----------------------------0h3--3/5---3------------------------3------3/5---0----|
E|-----------------------------------------------------------------------------3-----]
 And you could have it all My empire of dirt I will let you down I will make you hurt

🎸 Solo:

G|---------12\7--------------------------------------------------------------|
D|---------------12\10---12h14----------10\7--12\7---------------------------|
A|---12--------------------------12-----------------12-12-12-12--------------|
E|---------------------------------------------------------------------------|

I wear this crown of thorns
Upon my liar's chair
Full of broken thoughts
I cannot repair
Beneath the stains of time
The feelings disappear
You are someone else
I am still right here


Chorus

What have I become
My sweetest friend
Everyone I know goes away
In the end
And you could have it all
My empire of dirt
I will let you down
I will make you hurt
If I could start again
A million miles away
I would keep myself
I would find a way

************************************
| h  Hammer-on
| /  Slide up
[ \  Slide down
************************************

Almost there ...

Sign in to get your own page with links to favourite songs and more. You are just one click away...

Login with Facebook Login with Google