Log in

One click and you are in

Login with Facebook Login with Google

Why sign up and log in

Guitar Tabs Explorer
Shawn Mullins chords for Lullaby

Guitar chords with lyrics

"Lullaby" - Shawn Mullins
>From album "Soul's Core"
Tabbed by James Bobson

-----

Notes:
The chords to this song are all really easy to play, but
Shawn plays them kind of wierdly. During the verses it's
like he just strums a few strings every so often, and
then mutes them straight away. There are also tonza little
hammer-ons and stuff.
You'll find my attempt to tab out the wierd chords at the
bottom.Just listen to the song carefully and try and work
something out. Anyway, here we go...

-----

Standard tuning


Intro:
After a couple of bars of a drum beat, he goes something
like this:

G*, D*, C/B*, A chord diagramC majorC - x2


Verse 1:
G*, D*, C/B*, A chord diagramC majorC - x4

Then there's a little distortion part:
G, D, C/B, A chord diagramC majorC


Verse 2:
G*, D*, C/B*, A chord diagramC majorC - x4


Chorus:
G, D, A chord diagramC majorC - x3

-then:
G, D, C, A chord diagramA augmentedA


Verse 3:
G*, D*, C/B*, A chord diagramC majorC - x4


Chorus:
G, D, A chord diagramC majorC - x3

-then:
G, D, C, A, A chord diagramC majorC

-and around the 2nd A chord diagramC majorC a little lead piece starts. I'm not
sure about this it though, and it's incomplete. It's
hard to tell what's guitar and what's keyboard...

Key:
~~ trill (vibrate the note)
h  hammer-on
p  pull-off
b  bend up to specified fret
r  realease bend down to specified fret

e-10~~10~~10~~10~~-----10~~10~~------------------------
B------------------8-8----------8-8----8-10-10-10b11r8-
G-----------------------------------7-9----------------
D------------------------------------------------------

e------------10p7---------
B-------8-10-----10p8--8~~
G----7h9-------------9----
D-7h9---------------------


G*, D*, C/B*, A chord diagramC majorC - X2



Verse 4:

G*, D*, C/B*, A chord diagramC majorC - x4


Chorus (quiet):

G, D, A chord diagramC majorC - x3

-then:
G, D, C, A chord diagramA augmentedA


Chorus (loud):

G, D, A chord diagramC majorC
-over and over

Then:
A, C, A,

End on a A chord diagramC majorC

-----

Chords:

 G*          D*           C/B*

e----3-3--    e----2-2--    e-x-x-x----
B----3--3-    B----3--3-    B-----1-1--
G----0----    G----2----    G-----0--0-
D----x----    D-0-0-----    D-x-x-x----
A----x----    A-x-x-x-x-    A-2-2------
E-3-3-----    E-x-x-x-x-    E-x-x-x-x--


  A chord diagramG+G   A chord diagramD MajorD   A chord diagramC/BC/B A chord diagramC majorC

e-3---2---0---0-
B-3---3---1---1-
G-0---2---0---0-
D-0---0---x---2-
A-2---x---2---3-
E-3---x---x---x-

-------------------------
Questions, comments, suggestions are all welcome. E-mail,
guitarmunkie@hotmail.com

Almost there ...

Sign in to get your own page with links to favourite songs and more. You are just one click away...

Login with Facebook Login with Google