Log in

One click and you are in

Login with Facebook Login with Google

Why sign up and log in

Guitar Tabs Explorer
The Muffs guitar tabs for Stupid jerk

Guitar tabs with lyrics

Tuning: Standard (E A D G B E)

Key: A chord diagramF#F#

Difficulty: Novice

'Stupid Jerk' by The Muffs

Standard tuning

Just a quick note regarding the lyrics; they are very hard to hear on the recording and
the internet seems unsure exactly what is being said.
Intro:

                                               A chord diagramF#F#     A chord diagramG MajorG  A chord diagramE MajorE           A chord diagramF#F#     A chord diagramG MajorG  A chord diagramE MajorE
e|---------------------|---------------------|---------------------|---------------------|
B|---------------------|---------------------|---------------------|---------------------|
G|--Drums Only---------|-----volume swell----|---------------------|---------------------|
D|---------------------|-----and feedback----|-4--4-4-5--2---2-2-2-|-4--4-4-5--2---2-2-2-|
A|---------------------|---------------------|-4--4-4-5--2---2-2-2-|-4--4-4-5--2---2-2-2-|
E|---------------------|---------------------|-2--2-2-3--0---0-0-0-|-2--2-2-3--0---0-0-0-|
                                    Lets go!

   A chord diagramF#F#     A chord diagramG MajorG  A chord diagramE MajorE           A chord diagramF#F#     A chord diagramG MajorG  A chord diagramE MajorE
e|---------------------|---------------------|
B|---------------------|---------------------|
G|---------------------|---------------------|
D|-4--4-4-5--2---2-2-2-|-4--4-4-5--2---2-2-2-|
A|-4--4-4-5--2---2-2-2-|-4--4-4-5--2---2-2-2-|
E|-2--2-2-3--0---0-0-0-|-2--2-2-3--0---0-0-0-|


Verse:

   A chord diagramF#F#     A chord diagramG MajorG  A chord diagramE MajorE           A chord diagramF#F#     A chord diagramG MajorG  A chord diagramE MajorE           A chord diagramF#F#     A chord diagramG MajorG  A chord diagramE MajorE           A chord diagramF#F#     A chord diagramG MajorG  A chord diagramE MajorE
e|---------------------|---------------------|---------------------|---------------------|
B|---------------------|---------------------|---------------------|---------------------|
G|---------------------|---------------------|---------------------|---------------------|
D|-4--4-4-5--2---2-2-2-|-4--4-4-5--2---2-2-2-|-4--4-4-5--2---2-2-2-|-4--4-4-5--2---2-2-2-|
A|-4--4-4-5--2---2-2-2-|-4--4-4-5--2---2-2-2-|-4--4-4-5--2---2-2-2-|-4--4-4-5--2---2-2-2-|
E|-2--2-2-3--0---0-0-0-|-2--2-2-3--0---0-0-0-|-2--2-2-3--0---0-0-0-|-2--2-2-3--0---0-0-0-|
   Stupid jerk           cant think anymore    do what you want to do       ? are hard

  Middle:

For the next fours bars you have a compelling choice; you can chug away at a A chord diagramG MajorG power chord or you
could indulge in some indiscriminate string bending noise higher up the neck.

   A chord diagramG MajorG                        A chord diagramG MajorG                        A chord diagramG MajorG                        A chord diagramG MajorG
e|------------------------|------------------------|------------------------|------------------------|
B|------------------------|------------------------|------------------------|------------------------|
G|------------------------|------------------------|------------------------|------------------------|
D|-5-5-5--5-5--5-5-5--5-5-|-5-5-5--5-5--5-5-5--5-5-|-5-5-5--5-5--5-5-5--5-5-|-5-5-5--5-5--5-5-5--5-5-|
A|-5-5-5--5-5--5-5-5--5-5-|-5-5-5--5-5--5-5-5--5-5-|-5-5-5--5-5--5-5-5--5-5-|-5-5-5--5-5--5-5-5--5-5-|
E|-3-3-3--3-3--3-3-3--3-3-|-3-3-3--3-3--3-3-3--3-3-|-3-3-3--3-3--3-3-3--3-3-|-3-3-3--3-3--3-3-3--3-3-|
  *Yelling for four bars*


Outro:

   A chord diagramF#F#     A chord diagramG MajorG  A chord diagramE MajorE           A chord diagramF#F#     A chord diagramG MajorG  A chord diagramE MajorE
e|---------------------|---------------------|
B|---------------------|---------------------|
G|---------------------|---------------------|
D|-4--4-4-5--2---2-2-2-|-4--4---5--2---------|
A|-4--4-4-5--2---2-2-2-|-4--4---5--2---------|
E|-2--2-2-3--0---0-0-0-|-2--2---3--0---------|
   Stupid jerk


********************************
Rating and feedback very welcome

Almost there ...

Sign in to get your own page with links to favourite songs and more. You are just one click away...

Login with Facebook Login with Google