Log in

One click and you are in

Login with Facebook Login with Google

Why sign up and log in

Guitar Tabs Explorer
The Muffs bass tabs for Sad tomorrow

Bass tabs

Standard tuning (EADG)

LEGEND:
r = rest
/ = slide up
\ = slide down
()= sustained note

VERSE 1:
    (Rest x8)
G |-----------------|
D |-----------------|
A |-----------------|
E |-r---------------|
  1 & 2 & 3 & 4 &


PRE-CHORUS:
    (Rest x3)
G |-----------------||-----------------|
D |-----------------||-----------------|
A |-----------------||---------5-3---3-|
E |-r---------------||-r---------------|
  1 & 2 & 3 & 4 &  1 & 2 & 3 & 4 &


CHORUS 1:

G |-----------------|-----------------|-----------------|-----------------|
D |-----------------|-----------------|-----------------|-----------------|
A |---------3-3-3-3-|---------3-3-3-3-|-----------------|-5-5-5-5-5-5-5-6-|
E |-3---3-3---------|-3---3-3---------|-3---3-3-1-1-1-1/|-----------------|
  1 & 2 & 3 & 4 &  1 & 2 & 3 & 4 &  1 & 2 & 3 & 4 &  1 & 2 & 3 & 4 &

G |-----------------|-----------------|-----------------|-----------------|-----------------|
D |-----------------|-----------------|-----------------|-----------------|-----------------|
A |-7---7-7---------|-7---7-7\3-3-3-3-|---------5-5-5-5-|-----------------|---5-5-5-5-5-5-5\|
E |---------5-5-5-5-|-----------------|-5---5-5---------|-3-r-3-----------|-r---------------|
  1 & 2 & 3 & 4 &  1 & 2 & 3 & 4 &  1 & 2 & 3 & 4 &  1 & 2 & 3 & 4 &  1 & 2 & 3 & 4 &


VERSE 2 (x2):                      _________________ _________________
                            /1        /2
G |-----------------|-----------------|-----------------|-----------------|-----------------|
D |-----------------|-----------------|-----------------|-----------------|-----------------|
A |-----2---3-2-0---|-----2---3-2-0---|-3-3-3-3-5-5-5-5-|---------5-5-5-5-|---------5-5-5-6-|
E |-3-----3-------3-|(3)3---3-------3-|-----------------|-3-3-3-3/--------|-3-3-3-3/--------|
  1 & 2 & 3 & 4 &  1 & 2 & 3 & 4 &  1 & 2 & 3 & 4 &  1 & 2 & 3 & 4 &  1 & 2 & 3 & 4 &


PRE-CHORUS:

G |-----------------|-----------------|-----------------|-----------------|
D |-----------------|-----------------|-----------------|-----------------|
A |-7---7-7\3-3-3-3/|-7---7-7\3-3-3-3/|-7---7-7---------|-5-------5-3---3-|
E |-----------------|-----------------|---------5-5-5-5-|-----------------|
  1 & 2 & 3 & 4 &  1 & 2 & 3 & 4 &  1 & 2 & 3 & 4 &  1 & 2 & 3 & 4 &


CHORUS 2:

G |-----------------|-----------------|-----------------|-----------------|
D |-----------------|-----------------|-----------------|-----------------|
A |---------3-3-3-3-|---------3-3-3-3-|-----------------|-5-5-5-5-5-5-5-0-|
E |-3---3-3---------|-3---3-3---------|-3---3-3-1-1-1-1/|-----------------|
  1 & 2 & 3 & 4 &  1 & 2 & 3 & 4 &  1 & 2 & 3 & 4 &  1 & 2 & 3 & 4 &

G |-----------------|-----------------|-----------------|-----------------|-----------------|
D |-----------------|-----------------|-----------------|-----------------|-----------------|
A |-7---7-7---------|-7---7-7\3-3-3-3-|---------5-5-5-5-|-----------------|---5-5-5-5-5-5-5\|
E |---------5-5-5-5-|-----------------|-5---5-5---------|-3-r-3-----------|(3)--------------|
  1 & 2 & 3 & 4 &  1 & 2 & 3 & 4 &  1 & 2 & 3 & 4 &  1 & 2 & 3 & 4 &  1 & 2 & 3 & 4 &


INTERLUDE:

G |-----------------|-----------------|-----------------|-----------------|
D |-----------------|-----------------|-----------------|-----------------|
A |-----2---3-2-0---|-----2---3-2-0---|-3-3-3-3-5-5-5-5-|---------5-5-5-5-|
E |-3-----3-------3-|(3)3---3-------3-|-----------------|-3-3-3-3/--------|
  1 & 2 & 3 & 4 &  1 & 2 & 3 & 4 &  1 & 2 & 3 & 4 &  1 & 2 & 3 & 4 &

G |-----------------|-----------------|-----------------|-----------------|
D |-----------------|-----------------|-----------------|-----------------|
A |-----2---3-2-0---|-----2---3-2-0---|-3---3-3---------|---------5-5-5-6-|
E |-3-----3-------3-|(3)3---3-------3-|---------1-1-1-1-|-3-3-3-3---------|
  1 & 2 & 3 & 4 &  1 & 2 & 3 & 4 &  1 & 2 & 3 & 4 &  1 & 2 & 3 & 4 &


PRE-CHORUS:

G |-----------------|-----------------|-----------------|-----------------|-----------------|
D |-----------------|-----------------|-----------------|-----------------|-----------------|
A |-7---7-\-3-3-3-3/|-7---7-\-3-3-3-3/|-7---7-7---------|-5---------------|(5)--------------|
E |-----------------|-----------------|---------5-5-5-5-|-----------------|-----------------|
  1 & 2 & 3 & 4 &  1 & 2 & 3 & 4 &  1 & 2 & 3 & 4 &  1 & 2 & 3 & 4 &  1 & 2 & 3 & 4 &


OUT-CHORUS:

G |-----------------|-----------------|-----------------|-----------------|
D |-----------------|-----------------|-----------------|-----------------|
A |---------3-3-3-3-|---------3-3-3-3-|-----------------|-5-5-5-5-5-5-5-6-|
E |-3---3-3---------|-3---3-3---------|-3---3-3-1-1-1-1/|-----------------|
  1 & 2 & 3 & 4 &  1 & 2 & 3 & 4 &  1 & 2 & 3 & 4 &  1 & 2 & 3 & 4 &

                           (x2)
G |-----------------|-----------------||-----------------|-----------------|
D |-----------------|-----------------||-----------------|-----------------|
A |-7---7-7---------|-7---7-7\3-3-3-3-||---------5-5-5-5-|-----------------|
E |---------5-5-5-5-|-----------------||-5---5-5---------|-3---3-3-0-0-0-0-|
  1 & 2 & 3 & 4 &  1 & 2 & 3 & 4 &  1 & 2 & 3 & 4 &  1 & 2 & 3 & 4 &

G |-----------------|-----------------|-----------------|-----------------|
D |-----------------|-----------------|-----------------|-----------------|
A |---------5-5-5-5-|-----------------|-----------------|-----------------|
E |-5---5-5---------|-3---3-3-0---0-0-|-5-5-5-\-2-2-2---|-3---------------|
  1 & 2 & 3 & 4 &  1 & 2 & 3 & 4 &  1 & 2 & 3 & 4 &  1 & 2 & 3 & 4 &

Almost there ...

Sign in to get your own page with links to favourite songs and more. You are just one click away...

Login with Facebook Login with Google