Log in

One click and you are in

Login with Facebook Login with Google

Why sign up and log in

Guitar Tabs Explorer
The Muffs guitar chords for Im confused

Guitar chords with lyrics

Intro:


E|-----------------------------------------------------------------------------------|
B|-----------------------------------------------------------------------------------|
G|-----------------------------------------------------------------------------------|
D|-----------------------------------------------------------------------------------|
A|-8-8-8-6-6-5-5-3-3-1-1-3-3-3-5-5-5-5-6-5-5-3-3-1-1-1 8-8-8-8-5-5-6-6-5-5-3-3-1-1-1-|
E|-----------------------------------------------------------------------------------|

E|-----------------------------------------------------------------------------------|
B|-----------------------------------------------------------------------------------|
G|-----------------------------------------------------------------------------------|
D|-----------------------------------------------------------------------------------|
A|--1-3-3-5-5-5-5-5-6-6-5-5-3-3-1-1-5-5-5-5-5-8-8-8-8-10-10-10-10-12-12-12-12--------|
E|-----------------------------------------------------------------------------------|


A chord diagramBb5Bb5 A chord diagramD5D5   A chord diagramEb5Eb5
  I hate everyone
A chord diagramBb5Bb5     A chord diagramD5D5    A chord diagramEb5Eb5
  And I don't like it son
A chord diagramBb5Bb5     A chord diagramD5D5 A chord diagramEb5Eb5                  A chord diagramDmDm   A chord diagramEb5Eb5
  And I do weigh a ton and it's true
         A chord diagramDmDm   A chord diagramEb5Eb5
And it's true,
         A chord diagramDmDm   A chord diagramEb5Eb5
and it's true

             A chord diagramBb5Bb5   A chord diagramEb5Eb5
Yeah, I'm confused
             A chord diagramBb5Bb5   A chord diagramEb5Eb5
Yeah, I'm confused
             A chord diagramBb5Bb5   A chord diagramEb5Eb5
Yeah, I'm confused
             A chord diagramBb5Bb5   A chord diagramEb5Eb5
Yeah, I'm confused
A chord diagramBb5Bb5 A chord diagramD5D5    A chord diagramEb5Eb5
  I won't hesitate
A chord diagramBb5Bb5     A chord diagramD5D5   A chord diagramEb5Eb5
  And I will tempt fate
A chord diagramBb5Bb5   A chord diagramD5D5 A chord diagramEb5Eb5                A chord diagramDmDm   A chord diagramEb5Eb5
  Now congratulate me, it's true
         A chord diagramDmDm   A chord diagramEb5Eb5
And it's true
         A chord diagramDmDm   A chord diagramEb5Eb5
and it's true

             A chord diagramBb5Bb5   A chord diagramEb5Eb5
Yeah, I'm confused
             A chord diagramBb5Bb5   A chord diagramEb5Eb5
Yeah, I'm confused
             A chord diagramBb5Bb5   A chord diagramEb5Eb5
Yeah, I'm confused
        A chord diagramBb5Bb5  A chord diagramEb5Eb5
Yeah, I hate you
A chord diagramDmDm                 A chord diagramEb5Eb5
Somebody leave me alone
       A chord diagramDmDm            A chord diagramEb5Eb5
No one likes to be a clone
         A chord diagramBb5Bb5 A chord diagramBb6Bb6 (2x)
And everybody

      A chord diagramEb5Eb5 A chord diagramEb6Eb6 (2x)
is an ass
         A chord diagramBb5Bb5 A chord diagramBb6Bb6 (2x)
And everybody
      A chord diagramEb5Eb5 A chord diagramEb6Eb6 (2x)
is an ass
         A chord diagramBb5Bb5 A chord diagramBb6Bb6 (2x)
And everybody
      A chord diagramEb5Eb5 A chord diagramEb6Eb6 (2x)
is an ass

       A chord diagramF5F5
Put me away  wooooow!

E|-----------------------------------------------------------------------------------|
B|-----------------------------------------------------------------------------------|
G|-----------------------------------------------------------------------------------|
D|-----------------------------------------------------------------------------------|
A|-8-8-8-6-6-5-5-3-3-1-1-3-3-3-5-5-5-5-6-5-5-3-3-1-1-1 8-8-8-8-5-5-6-6-5-5-3-3-1-1-1-|
E|-----------------------------------------------------------------------------------|



E|-----------------------------------------------------------------------------------|
B|-----------------------------------------------------------------------------------|
G|-----------------------------------------------------------------------------------|
D|-----------------------------------------------------------------------------------|
A|--1-3-3-5-5-5-5-5-6-6-5-5-3-3-1-1-5-5-5-5-5-6-6-5-5-3-3-1-3-5-5-5-5-6-6......------|
E|-----------------------------------------------------------------------------------|


A chord diagramBb5Bb5
Now, now
A chord diagramEb5Eb5          A chord diagramBb5Bb5
Yeah, I'm confused
A chord diagramEb5Eb5          A chord diagramBb5Bb5
Yeah, I'm confused
A chord diagramEb5Eb5          A chord diagramBb5Bb5
Yeah, I'm confused
A chord diagramEb5Eb5          A chord diagramBb5Bb5
Yeah, I'm confused
A chord diagramEb5Eb5          A chord diagramBb5Bb5
Yeah, I'm confused
A chord diagramEb5Eb5          A chord diagramBb5Bb5
Yeah, I'm confused
A chord diagramEb5Eb5          A chord diagramBb5Bb5
Yeah, I'm confused
A chord diagramEb5Eb5          A chord diagramBb5Bb5
Yeah, I'm confused

Almost there ...

Sign in to get your own page with links to favourite songs and more. You are just one click away...

Login with Facebook Login with Google