Log in

One click and you are in

Login with Facebook Login with Google

Why sign up and log in

Guitar Tabs Explorer
The Muffs guitar tabs for Big mouth

Guitar tabs with lyrics

Tuning: Standard (E A D G B E)

Key: A chord diagramFF

Difficulty: Novice
  Intro:

   A chord diagramFF
e|----------------------------------------|
B|----------------------------------------|
G|-10-------------------------------------|
D|-10---------feedback--------------------|
A|-8--------------------------------------|
E|----------------------------------------|
   I dont like you and I wont pretend to


  Verse:

   A chord diagramC majorC                                                 A chord diagramFF
e|-------------------------------------------------|-------------------------------------------------|
B|-------------------------------------------------|-------------------------------------------------|
G|-------------------------------------------------|-------------------------------------------------|
D|-------------------------------------------------|-10-10-12-10-10-10-12-10-10-10-12-10-10-10-12-10-|
A|-10-10-12-10-10-10-12-10-10-10-12-10-10-10-12-10-|-8--8--8--8--8--8--8--8--8--8--8--8--8--8--8--8--|
E|-8--8--8--8--8--8--8--8--8--8--8--8--8--8--8--8--|-------------------------------------------------|
   Now         Im gonna get you                      out of my way into another

   A chord diagramC majorC                                                 A chord diagramBb majorBb                   A chord diagramC majorC
e|-------------------------------------------------|-------------------------------------------------|
B|-------------------------------------------------|-------------------------------------------------|
G|-------------------------------------------------|-------------------------------------------------|
D|-------------------------------------------------|-8--------------------10-------10-10-10-10-10----|
A|-10-10-12-10-10-10-12-10-10-10-12-10-10-10-12-10-|-8--------------------10-------10-10-10-10-10----|
E|-8--8--8--8--8--8--8--8--8--8--8--8--8--8--8--8--|-6--------------------8--------8--8--8--8--8-----|
   How                              I ever trusted   you           I will never know

   A chord diagramFF                       A chord diagramBb majorBb
e|-------------------------------------------------|
B|-------------------------------------------------|
G|-10----10----10----10----------------------------|
D|-10----10----10----10----8------8-8--------8-8-8-|
A|-8-----8-----8-----8-----8------8-8--------8-8-8-|
E|-------------------------6------6-6--------6-6-6-|
   and it all seemed so    long   ago         what

  Chorus:

   A chord diagramFF                       A chord diagramBb majorBb                        A chord diagramFF                       A chord diagramBb majorBb
e|-------------------------------------------------|-------------------------------------------------|
B|-------------------------------------------------|-------------------------------------------------|
G|-10----10----10----10----------------------------|-10----10----10----10----------------------------|
D|-10----10----10----10----8------8-8--------8-8-8-|-10----10----10----10----8------8-8--------8-8-8-|
A|-8-----8-----8-----8-----8------8-8--------8-8-8-|-8-----8-----8-----8-----8------8-8--------8-8-8-|
E|-------------------------6------6-6--------6-6-6-|-------------------------6------6-6--------6-6-6-|
   you say     will come   back to you         what you say      will come   back to you         what

   A chord diagramFF                             A chord diagramC majorC                   A chord diagramFF
e|-------------------------------------------------|-------------------------------------------------|
B|-------------------------------------------------|-------------------------------------------------|
G|-10----10----10----10----------------------------|-------------------------------------------------|
D|-10----10----10----10----10----10-10-10-10-10-10-|-10-10-12-10-10-10-12-10-10-10-12-10-10-10-12-10-|
A|-8-----8-----8-----8-----10----10-10-10-10-10-10-|-8--8--8--8--8--8--8--8--8--8--8--8--8--8--8--8--|
E|-------------------------8-----8--8--8--8--8--8--|-------------------------------------------------|
   you say       will come back         to your big mouth


  Verse 2:

   A chord diagramFF
e|-------------------------------------------------|
B|-------------------------------------------------|
G|-10----------------------------------------------|
D|-10----Let ring----------------------------------|
A|-8-----------------------------------------------|
E|-------------------------------------------------|
   I believed you and I thought I knew you

   A chord diagramC majorC                                                 A chord diagramFF
e|-------------------------------------------------|-------------------------------------------------|
B|-------------------------------------------------|-------------------------------------------------|
G|-------------------------------------------------|-------------------------------------------------|
D|-------------------------------------------------|-10-10-12-10-10-10-12-10-10-10-12-10-10-10-12-10-|
A|-10-10-12-10-10-10-12-10-10-10-12-10-10-10-12-10-|-8--8--8--8--8--8--8--8--8--8--8--8--8--8--8--8--|
E|-8--8--8--8--8--8--8--8--8--8--8--8--8--8--8--8--|-------------------------------------------------|
   would            I told you things that           I would never tell anybody

   A chord diagramC majorC                                                 A chord diagramBb majorBb                   A chord diagramC majorC
e|-------------------------------------------------|-------------------------------------------------|
B|-------------------------------------------------|-------------------------------------------------|
G|-------------------------------------------------|-------------------------------------------------|
D|-------------------------------------------------|-8--------------------10-------10-10-10-10-10----|
A|-10-10-12-10-10-10-12-10-10-10-12-10-10-10-12-10-|-8--------------------10-------10-10-10-10-10----|
E|-8--8--8--8--8--8--8--8--8--8--8--8--8--8--8--8--|-6--------------------8--------8--8--8--8--8-----|
   else                          and now it's common knowledge to         everyone                and

   A chord diagramFF                       A chord diagramBb majorBb
e|-------------------------------------------------|
B|-------------------------------------------------|
G|-10----10----10----10----------------------------|
D|-10----10----10----10----8------8-8--------8-8-8-|
A|-8-----8-----8-----8-----8------8-8--------8-8-8-|
E|-------------------------6------6-6--------6-6-6-|
   now I cant face         anyone             what


  Chorus:

   A chord diagramFF                       A chord diagramBb majorBb                        A chord diagramFF                       A chord diagramBb majorBb
e|-------------------------------------------------|-------------------------------------------------|
B|-------------------------------------------------|-------------------------------------------------|
G|-10----10----10----10----------------------------|-10----10----10----10----------------------------|
D|-10----10----10----10----8------8-8--------8-8-8-|-10----10----10----10----8------8-8--------8-8-8-|
A|-8-----8-----8-----8-----8------8-8--------8-8-8-|-8-----8-----8-----8-----8------8-8--------8-8-8-|
E|-------------------------6------6-6--------6-6-6-|-------------------------6------6-6--------6-6-6-|
   you say     will come   back to you         what you say      will come   back to you         what


    A chord diagramFF                      A chord diagramC majorC                         A chord diagramFF
e|-------------------------------------------------|-------------------------------------------------|
B|-------------------------------------------------|-------------------------------------------------|
G|-10----10----10----10----------------------------|-------------------------------------------------|
D|-10----10----10----10----10----10-10-10-10-10-10-|-10-10-12-10-10-10-12-10-10-10-12-10-10-10-12-10-|
A|-8-----8-----8-----8-----10----10-10-10-10-10-10-|-8--8--8--8--8--8--8--8--8--8--8--8--8--8--8--8--|
E|-------------------------8-----8--8--8--8--8--8--|-------------------------------------------------|
   you say       will come back         to your big mouth


  Middle:

   A chord diagramBb majorBb                                                A chord diagramFF
e|-------------------------------------------------|-------------------------------------------------|
B|-------------------------------------------------|-------------------------------------------------|
G|-------------------------10-10~------------------|-------------------------------------------------|
D|-8-----------------------------------------------|-10-10-12-10-10-10-12-10-10-10-12-10-10-10-12-10-|
A|-8--let ring-------------------------------------|-8--8--8--8--8--8--8--8--8--8--8--8--8--8--8--8--|
E|-6-----------------------------------------------|-------------------------------------------------|
  I never thought youd do it now never thought youd ever tell them that                 you have a

   A chord diagramC majorC
e|-------------------------------------------------|
B|-------------------------------------------------|
G|-------------------------------------------------|
D|-------------------------------------------------|
A|-10-10-10-10-10-10-10-10-10----------------------|
E|-8--8--8--8--8--8--8--8--8-----------------------|
   big mouth


  Solo:

Very simple solo but requires lots of bending and vibrato. Dont be afraid to bend that last note out of tune.

   A chord diagramFF                                                A chord diagramC majorC
e|-------------------------------------------------|-------------------------------------------------|
B|-------------------------------------------------|-------------------------------------------------|
G|-8b10~---10~---10~---10~---10~--10~---10r8-------|-------------------------------------------------|
D|--------------------------------------------10---|-8b10~---10~---10~---10~---10~--10~---10r8-------|
A|-------------------------------------------------|--------------------------------------------10---|
E|-------------------------------------------------|-------------------------------------------------|

   A chord diagramFF                                                A chord diagramC majorC
e|-------------------------------------------------|------------------------------------------------|
B|-------------------------------------------------|------------------------------------------------|
G|-8b10~---10~---10~---10~---10~--10~---10r8-------|-8b10-10-10-10-8b10-10-10-10/15b17-17-17-17-17--|
D|-------------------------------------------------|------------------------------------------------|
A|-------------------------------------------------|------------------------------------------------|
E|-------------------------------------------------|------------------------------------------------|
                                                                                           Whoa-oh
   A chord diagramBb majorBb                      A chord diagramC majorC                         A chord diagramFF                       A chord diagramBb majorBb
e|-------------------------------------------------|-------------------------------------------------|
B|-------------------------------------------------|-------------------------------------------------|
G|-------------------------------------------------|-10----10----10----10----------------------------|
D|-8-----------------------10----------------------|-10----10----10----10----8------8-8--------8-8-8-|
A|-8-----------------------10----------------------|-8-----8-----8-----8-----8------8-8--------8-8-8-|
E|-6-----------------------8-----------------------|-------------------------6------6-6--------6-6-6-|
   you have told           everyone              and now   I     can't face anyone               what


  Chorus & Outro:

   A chord diagramFF                       A chord diagramBb majorBb                        A chord diagramFF                       A chord diagramBb majorBb
e|-------------------------------------------------|-------------------------------------------------|
B|-------------------------------------------------|-------------------------------------------------|
G|-10----10----10----10----------------------------|-10----10----10----10----------------------------|
D|-10----10----10----10----8------8-8--------8-8-8-|-10----10----10----10----8------8-8--------8-8-8-|
A|-8-----8-----8-----8-----8------8-8--------8-8-8-|-8-----8-----8-----8-----8------8-8--------8-8-8-|
E|-------------------------6------6-6--------6-6-6-|-------------------------6------6-6--------6-6-6-|
   you say     will come   back to you         what you say      will come   back to you         what

   A chord diagramFF                       A chord diagramC majorC                         A chord diagramFF          A chord diagramBb majorBb           A chord diagramC majorC
e|-------------------------------------------------|-------------------------------------------------|
B|-------------------------------------------------|-------------------------------------------------|
G|-10----10----10----10----------------------------|-10----10----------------------------------------|
D|-10----10----10----10----10----10-10-10-10-10-10-|-10----10----8-----8-----10----10-10-10-10-10-10-|
A|-8-----8-----8-----8-----10----10-10-10-10-10-10-|-8-----8-----8-----8-----10----10-10-10-10-10-10-|
E|-------------------------8-----8--8--8--8--8--8--|-------------6-----6-----8-----8--8--8--8--8--8--|
   you say       will come back         to your big mouth        big         mouth               big

   A chord diagramFF           A chord diagramBb majorBb          A chord diagramC majorC                         A chord diagramFF           A chord diagramBb majorBb          A chord diagramC majorC
e|-------------------------------------------------|-------------------------------------------------|
B|-------------------------------------------------|-------------------------------------------------|
G|-10----10----------------------------------------|-10----10----------------------------------------|
D|-10----10----8-----8-----10----10-10-10-10-10-10-|-10----10----8-----8-----10----10-10-10-10-10-10-|
A|-8-----8-----8-----8-----10----10-10-10-10-10-10-|-8-----8-----8-----8-----10----10-10-10-10-10-10-|
E|-------------6-----6-----8-----8--8--8--8--8--8--|-------------6-----6-----8-----8--8--8--8--8--8--|
   mouth       big         mouth               big   mouth       big         mouth

   A chord diagramFF
e|-------------------------------------------------|
B|-------------------------------------------------|
G|-10----------------------10----------------------|
D|-10----------------------10----------------------|
A|-8-----------------------8-----------------------|
E|-------------------------------------------------|
                              Whoaw!



Any feedback and ratings very welcome


************************************

| ~  Vibrato
| r  Release
| b  Bend
| /  Slide up

************************************

Almost there ...

Sign in to get your own page with links to favourite songs and more. You are just one click away...

Login with Facebook Login with Google