Log in

One click and you are in

Login with Facebook Login with Google

Why sign up and log in

Guitar Tabs Explorer
Mudvayne bass tabs for The patient mental

Bass tabs with lyrics

band: Mudvayne

song: The Patient Mental

CD: The End Of All Things To Come

tabbed by: Danny aka B-threat187 (triple_threat187@yahoo.com)

comments: The bridge has very odd timing, so I suggest turning up your stereo REALLY loud and listening carefully. plus i played by ear, so if any mistakes, e-mail me. enjoy.

T = downward pluck or tap
st = strum
S = slap
( ) = play softly

Intro (0:09)                            x3     then:
F -------|--------------------------------|-------------------------------
C -------|--------------------------------|-------------------------------
G -------|---------8-8--------------------|---------8-8-------------------
C -10--|-5h6-5h6-----6-5-0--5-6-0-5-3-0-|-5h6-5h6-----6-5-0--5-6-0-5-3--
                   T T                              T T
Verse   (0:30)
F -------------------------10-10-------------------------------------
C -0-0-10h12-13-0-12--13-0-------12--0-0-10h12-13-0-10--12-0-0-0-0-3-
G -------------------------------------------------------------------
C -------------------------------------------------------------------

F --------------------------------------------------------
C --------------------3-3---------------------------------
G -----3h5-6---5--6-------5------3h5-6---3--5-------------
C -0-0-------0------0--------0-0-------0------0-0-0-0-0-0-

  (0:50) "Why won't they leave me..."   on the 4th time play this:
F --------------------------------|-------------------------------
C --------------------------------|-------------------------------
G ---------8-8--------------------|---------8-8-------------------
C -5h6-5h6-----6-5-0--5-6-0-5-3-0-|-5h6-5h6-----6-5-0--5-6-0-5-3--
           T T                              T T
Then repeat the three verse riffs.

Chorus   (1:30)
F -15-15-15-15-15---------------17-17-17--12-12-12-12-12------------------------
C -13-13-13-13-13---------------15-15-15--10-10-10-10-10------------------------
G ------------------------------------------------------------------------------
C ----------------0-0-0-3-0-0-0---------------------------0-1-0-1-3-1-0-1-0-0-0-
   st st st st st T T T T T T T st st st  st st st st st  T T T T T T T T T T T
cont.   (1:40) "Why won't they leave him..."
F -----------------------------------------------------------
C -----------------------------------------------------------
G -----------------------------------------------------------
C -6p3-6p3-6p3-3-6p3-3-6p3-6p3-6-6p3-3-6p3-6p3-6p3-3-6p3-3-3-

Verse again (just the first two riffs) (1:54)

Chorus again (2:15)

Badass part   (2:39) tricky timing here
F ------------------------------------------------
C ------------------------------------------------
G ------------------------------------------------
C -0-0-0--0---0--0---0-0-0--0-0-0---0--0---0--0-0-
   S S S  S   S  S   S S S  S S S   S  S   S  S S

Pre-bridge   (2:49)
F --------------------
C --------------------
G --------------------
C -6---/8--3---/10----

Bridge   (2:57) Timing is VERY tricky here  (x8)
F -13-12-10--10-------------------------------10--------------------------------------
C -----------13----12--13--10---10--12-13----13-12--13-12-10--------------------------------------10-----
G ----------------------------------------------------------------------------13--11---10---11-13----11--
C ----------------------------------------------------------------------------

Chorus again (3:47)

Outro   (4:22)
F ------------------------------------------------------------
C --------------------(12)---------------------(12)-----------
G ----------------(10)-----------------------------(10)-------
C -6---/8--3---/10--------------6---/8--3---/10--------(10)---

Almost there ...

Sign in to get your own page with links to favourite songs and more. You are just one click away...

Login with Facebook Login with Google