Log in

One click and you are in

Login with Facebook Login with Google

Why sign up and log in

Guitar Tabs Explorer
Mudvayne guitar chords for The end of things to come

The End Of Things To Come chords by Mudvayne

Mudvayne guitar chords for The end of things to come

Guitar chords

MuDvAyNe-Silenced-The end of things to come
Tabbed by-Danny
Tunings-i have mine in D,G,C,F,G#,C#, but when u put it in C,G,C,F it
sounds perfect still.
Email-ibanezjd2287@aol.com email me if u got corrections
(h=Hammer)

(0:08) Beginning this is mostly the main riff.
C--5-6h-7h-0-5-6h-7h-0-5-5----
G--5-6h-7h-0-5-6h-7h-0-5-5----
D--5-6h-7h-0-5-6h-7h-0-5-5----

(0:26)
PALM MUTED
C--2-2-2-2--2-2-2-2------
G--2-2-2-2--2-2-2-2------
D--0-0-0-0--0-0-0-0------
(0:30) goes like this...
F-----------9-10-9-8---------
C--2-2-2-2--7--8-7-6---------
G--2-2-2-2-------------------
D--0-0-0-0-------------------
(0:47) goes into...
C--5-6h-7h-0-5-6h-7h-0-5-5--------
G--5-6h-7h-0-5-6h-7h-0-5-5--------
D--5-6h-7h-0-5-6h-7h-0-5-5--------
(0:56)this riff is a little different
PALM MUTED
F-------------------9-10-9-8---
C--2-2-2-2--2-2-2-2-7--8-7-6--
G--2-2-2-2--2-2-2-2-----------
D--0-0-0-0--0-0-0-0-----------
(1:15)this is the main riff...
C--5-6h-7h-0-5-6h-7h-0-5-5--------
G--5-6h-7h-0-5-6h-7h-0-5-5--------
D--5-6h-7h-0-5-6h-7h-0-5-5--------
This is a little solo,stroke up & down listen to the song and u will
hear)
C------------------
G--5-6-7-5-5-------
D------------------
(1:39)PALM MUTE this keep going with it untill...
-2------------------
-2------------------
-2------------------
(1:47)it goes to this again but do it once
C--5-6h-7h-0-5-6h-7h-0-5-5--------
G--5-6h-7h-0-5-6h-7h-0-5-5--------
D--5-6h-7h-0-5-6h-7h-0-5-5--------
(1:50)it stops and goes into the bass solo but he does this PALM MUTE.
-2----------
-2----------
-2----------
(1:59) this keeps going untill....
F--------------------7-----
C--5-6h-7h-0-5-6h-7h-0---------
G--5-6h-7h-0-5-6h-7h-0---------
D--5-6h-7h-0-5-6h-7h-0---------
(2:16)stops and goes into...
C--2-2-2-2--2-2-2-2-----
G--2-2-2-2--2-2-2-2-----
D--0-0-0-0--0-0-0-0-----
goes into this again...
F-----------9-10-9-8---------
C--2-2-2-2--7--8-7-6---------
G--2-2-2-2-------------------
D--0-0-0-0-------------------
(2:37) goes into this...little different.
C--4-5h-6h-4-5h-6h-4-4-------------
G--4-5h-6h-4-5h-6h-4-4-------------
D--4-5h-6h-4-5h-6h-4-4-------------
(2:44) into this until the song is over.
C--5-6h-7h-0-5-6h-7h-0-5-5--------
G--5-6h-7h-0-5-6h-7h-0-5-5--------
D--5-6h-7h-0-5-6h-7h-0-5-5--------

Almost there ...

Sign in to get your own page with links to favourite songs and more. You are just one click away...

Login with Facebook Login with Google